Phillip, Craige & Dean - When God Ran Chords & Tabs

 

When God Ran Chords & Tabs

Phillip, Craige & Dean Chords & Tabs

Version: 1 Type: Tab 0 ratings
1 star 2 stars 3 stars 4 stars 5 stars
comments

When God Ran Tab

   
Title	: When God Ran
Artist	: Phillip, Craige & Dean
Tab By	: Alvin Ryan J. Aranda
	  16-20 Andalucia St. Eroreco Subd.
	  Bacolod City, Negros Occidental Philippines
	  06100
email	: arja_spider@yahoo.com
 
  h  - Hammer Down
  p  - Pull Back
  1. - Verse 1
  2. - Verse 2
  /  - Slide Up
  \  - Slide Down
  ^  - Bend String
  ~  - Vibrato

(Capo 1 > All Chords Relative To Capo)

Intro:
   F	        G/F     F            G
|--------------------|------------------------------|
|--1---0-------------|--1---0--------0---0h1p0------|
|--0-----0-----0-0---|--0-----0----0-0---------0----|	2x
|--------------------|---------------------------0--|
|--------------------|------------------------------|
|--1--------1----1---|--1--------1---3--------------|


VERSE:
        C                          C/B      
|--------------------------------|--------------------------|
|----------------1----------1----|----------1----------1----|
|-------------0----0------4---0--|--------4---0------4---0--|
|-----------2-----------2--------|------2----------2--------|
|---------3-----------3----------|----2----------2----------|
|--------------------------------|--------------------------|
  1. Al - mighty God, 	          The great I am,
  2. The  day I left home,  How did I broken his heart,

    F                   Gsus        G
|------------------------------------------------|
|---------------1----------2--------2--0---------|
|-------------2---2--------------0---------------|
|-----------3-------3----------0-----------------|
|---------3--------------------------------------|
|------1-------------------3-----------3---------|
  1. Immovable rock,  Om - nipotent,   Powerfull
  2. & I wonder Then   if  Things could ever be the same

        C                          C/B      
|--------------------------------|--------------------------|
|----------------1----------1----|----------1----------1----|
|-------------0----0------4---0--|--------4---0------4---0--|
|-----------2-----------2--------|------2----------2--------|
|---------3-----------3----------|----2----------2----------|
|--------------------------------|--------------------------|
  1.     Awesome love,		   Victorious warrior,
  2.         Then one night, I  rem - member his love for me

    F                   Gsus        G
|------------------------------------------------------|
|---------------1----------------2--------2--0-----0---|
|-------------2---2--------------------0---------0-----|
|-----------3-------3----------------0---------0-------|
|---------3--------------------------------------------|
|------1-------------------------3-----------3---------|
  1. Commanding king of kings,  Mighty Conqueror
  2. & down the dusty road,   a  head i can see

[ Tab from: http://www.guitartabs.cc/tabs/p/phillip_craige_dean/when_god_ran_tab.html ]
  REFRAIN:
             Am                 F
    |-----------------0-------------------0--|
    |---------------1---1-------1------------|
    |-------------2-------2----------2-------|
    |-----------2-----------2------3---3-----|
    |---------0------------------------------|
    |---------------------------1---------1--|
 (And)    the only time,
 (It was)
             Am                        Gsus            G
    |-----------------0----------------------------------------|
    |---------------1---1--------------1-------1-------0-------|
    |-------------2-------2----------------0-----0-------------|
    |-----------2-----------2------------0----------0----------|
    |---------0------------------------------------------------|
    |----------------------------------3------3--------3-------|
 (It was) the only time i ever saw him ran


CHORUS 1: 
                 C		  Am
     Was when he ran to me, he took me in his arms,
             F
     Held my head to his chest, 
                  Gsus      G
     and said "My son comed home again"
     C                        Am
     Lifted my face, wipe the tears from my eyes,
             F
     With forgiveness in his voice,
              Am         G            F          Gsus-G
     He said "son do you know i still love you"
        Am             F
     He caught me by surprise,
              Gsus-G`
     When God ran...

	  

Chorus 2: 

     And Then he ran to me, he took me in his arms,
     Held my head to his chest,
     and said "My son comed home again"
     Lifted my face, wipe the tears from my eyes,
     With forgiveness in his voice,
     He said "son do you know i still love you"
     He caught me by surprise,
            Am               F
     And he brought me to my knees,
              Gsus-G
     When God ran...
               C  INSTRUMENTAL: Am - F - G 
     I saw him run to me...

BRIDGE:
      F                         G
I was so ashamed, all alone and so far away,
    F                                  G
But now i know, that he's been waiting for this day...

CHORUS 3:
               C	     Am
     I saw him ran to me, he took me in his arms,
             F
     Held my head to his chest, 
                  Gsus      G
     and said "My son comed home again"
     C                        Am
     Lifted my face, wipe the tears from my eyes,
             F
     With forgiveness in his voice,
                Gsus-G
     I felt his love for me again
        C	      Am
     he ran to me, he took me in his arms,
             F
     Held my head to his chest, 
                  Gsus      G
     and said "My son comed home again"
     C                        Am
     Lifted my face, wipe the tears from my eyes,
             F
     With forgiveness in his voice,
              Am         G            F          Gsus-G
     He said "son do you know i still love you"
        Am             F
     He caught me by surprise,
              Gsus-G`
     When God ran...
     Am             F
     He caught me by surprise,
            Am               F
     And he brought me to my knees,
              Gsus-G
     When God ran...

To All CYA'ers (Christ's Youth in Action)...
Lets "Keep on, Keeping on" 

Any Q's, corrections and suggestion just e-mail me.
Comments