Philippine Violators - Sikat Na Si Pedro Chords & Tabs

 

Sikat Na Si Pedro Chords & Tabs

Philippine Violators Chords & Tabs

Version: 2 Type: Tab 0 ratings
1 star 2 stars 3 stars 4 stars 5 stars
comments

Sikat Na Si Pedro Tab

   
          "SIKAT NA SI PEDRO" BY:PHILIPPINE VIOLATORS
                   transcribed by:alay           
              e-mail me :alay_slash@yahoo.com 
                   kung may mali thanx 

                  

intro: 2x)then do the chords in the bottom                            
E|--------------------------------|
B|--------------------------------|
G|--------------------------------|
D|--------------------------------|
A|-5(8x)-9(8x)-10-(8x)-10-9-10-12-|
E|-3-----7------8-------8-7--8-10-|
PM...............................
 Chords: 

G,Bm,C,C,Bm,C,D (2x)

     guitar riffs (Do it fast)
E|-15-15-15--------15-15-14-14-14--------14-14-15-15-15---------------|
B|---------15-15-15--------------15-15-15--------------17-17-17-------|
G|--------------------------------------------------------------------|
D|--------------------------------------------------------------------|
A|--------------------------------------------------------------------|
E|--------------------------------------------------------------------|

E|----------15-14-------------------------------------|
B|-15-15-15-------17-15-13-15-12-13-------------------|
G|----------------------------------------------------|
D|----------------------------------------------------|
A|----------------------------------------------------|
E|----------------------------------------------------|
[ Tab from: http://www.guitartabs.cc/tabs/p/philippine_violators/sikat_na_si_pedro_tab_ver_2.html ]
E|-15-15-15--------15-15-14-14-14--------14-14-15-15-15---------------|
B|---------15-15-15--------------15-15-15--------------17-17-17-------|
G|--------------------------------------------------------------------|
D|--------------------------------------------------------------------|
A|--------------------------------------------------------------------|
E|--------------------------------------------------------------------|

E|----------15-14-------------------------------------|
B|-15-15-15-------17-15-13-15-13/---------------------|
G|----------------------------------------------------|
D|----------------------------------------------------|
A|----------------------------------------------------|
E|----------------------------------------------------|


akong kilala, Pedro ang pangalan...(as many times)
E|--------------------------------|
B|--------------------------------|
G|--------------------------------|
D|--------------------------------|
A|-5(8x)-9(8x)-10-(8x)-10-9-10-12-|
E|-3-----7------8-------8-7--8-10-|
PM...............................
Balang araw sa intablado...(as many times)  
 (4x)and then D     
E|-7-------8-------------10-------------------|
B|-7-------8-------------10-------------------|
G|-----------9--------------------------------|
D|---9-(7x)----10-(7x)-------12---------------|
A|---9---------10------------12---------------|
E|-7-------8-------------10-------------------|

kumusta kayo dyan mga taga davao rate nyo naman 
i alay ko tong kanta sa kaibigan kung c joeven c alay to pre!!!
Comments