Philippine Violators - Sikat Na Si Pedro Chords & Tabs

 

Sikat Na Si Pedro Chords & Tabs

Philippine Violators Chords & Tabs

Version: 1 Type: Tab 0 ratings
1 star 2 stars 3 stars 4 stars 5 stars
comments

Sikat Na Si Pedro Tab

         
          "SIKAT NA SI PEDRO" BY:PHILIPPINE VIOLATORS
                   transcribed by:freongang
              visit me at:freongang_81@yahoo.com 
                    freongang_08@yahoo.com

intro:         X2                              X2
E|--------------------------------  ----------------------------------|
B|--------------------------------  ----------------------------------|
G|--------------------------------  ---------6-6-6-6-7-7-7-7--6--7--9-|
D|---------6-6-6-6-7-7-7-7--6-7-9-  -5-5-5-5-6-6-6-6-7-7-7-7--6--7--9-|
A|-5-5-5-5-4-4-4-4-5-5-5-5--4-5-7-  -5-5-5-5-4-4-4-4-5-5-5-5--4--5--7-|
E|-3-3-3-3------------------------  -3-3-3-3--------------------------|

  Intro: (bass riffs) w/thick dist.
E|-------------------------------------------|
B|-------------------------------------------|
G|-------------------------------------------|
D|-------------------------------------------|
A|---------4-4-4-4-5-5-5-5---4--5-----7------|
E|-3-3-3-3-----------------------------------|


     guitar riffs (Do it fast)
E|-18-18-18----------18-18-17-17-17----------17-17-18-18-18-----------|
B|----------17-17-17----------------17-17-17----------------17-17-17--|
G|--------------------------------------------------------------------|
D|--------------------------------------------------------------------|
A|--------------------------------------------------------------------|
E|--------------------------------------------------------------------|
[ Tab from: http://www.guitartabs.cc/tabs/p/philippine_violators/sikat_na_si_pedro_tab.html ]
E|--18-18-------------18-18-17-17---------------------|
B|--------19-19-17-17-------------19-19-17-17-18-18---|
G|----------------------------------------------------|
D|----------------------------------------------------|
A|----------------------------------------------------|
E|----------------------------------------------------|

E|-18-18-18----------18-18-17-17-17----------17-17-18-18-18-----------|
B|----------17-17-17----------------17-17-17----------------17-17-17--|
G|--------------------------------------------------------------------|
D|--------------------------------------------------------------------|
A|--------------------------------------------------------------------|
E|--------------------------------------------------------------------|

E|--18-18-------------18-18-17-17---------------------|
B|--------19-19-17-17-------------19-19-17------------|
G|----------------------------------------------------|
D|----------------------------------------------------|
A|----------------------------------------------------|
E|----------------------------------------------------|

 Meron akong kilala, Pedro ang pangalan...(as many times)
E|---------------------------------|
B|---------------------------------|
G|---------------------------------|
D|---------6-6-6-6-7-7-7-7--6-7--9-|
A|-5-5-5-5-4-4-4-4-5-5-5-5--4-5--7-|
E|-3-3-3-3-------------------------|


Balang araw sa intablado...(as many times)
E|----------------------------------------|
B|----------------------------------------|
G|-9-9-9-9--7-7-7-7--9-9-9-9--7-7-7-7-----|
D|-9-9-9-9--7-7-7-7--9-9-9-9--7-7-7-7-----|
A|-7-7-7-7--5-5-5-5--7-7-7-7--5-5-5-5-----|
E|----------------------------------------|

           <<<>>>
Comments