Phil Lynott - Top Of The Pops Chords & Tabs

 

Top Of The Pops Chords & Tabs

Phil Lynott Chords & Tabs

Version: 1 Type: Tab 0 ratings
1 star 2 stars 3 stars 4 stars 5 stars
comments

Top Of The Pops Tab

-----------------------------------------------------------------------------
			      Top of the pops - original song
-----------------------------------------------------------------------------
Tabbed by: Emmabeck13

This song is more for beginners but anyhow, 
it sounds right to me so check it out.

Tuning: normal

e|-----------------------------------|
B|-----------------------------------|
G|-----------------------------------|
D|-----------------------------------|
A|-5-5-7-777 777----5-5-7-777-777----|
E|0303-5-555 555---0303-5-555-555----|
[ Tab from: http://www.guitartabs.cc/tabs/p/phil_lynott/top_of_the_pops_tab.html ]
e|-----------------------------------|
B|-----------------------------------|
G|-----------------------------------|
D|-5-5-7-777-777---------------------|
A|0303-5-555-555----5-5-7-777-777----|
E|-----------------0303-5-555-555----|

e|-----------------------------------|
B|-----------------------------------|
G|-----------------------------------|
D|-5-5-9-999-999----5-5-7-777-777----|
A|0303-7-777-777---0303-5-555-555----|
E|-----------------------------------|

e|-----------------------------------|
B|-----------------------------------|
G|-----------------------------------|
D|-----------------------------------|
A|-5-5-7-777-777----5-5-7------------|
E|0303-5-555-555---0303-5------repeat|


======================================
Comments