Phil Collins - Another Day In Paradise Chords & Tabs

 

Another Day In Paradise Chords & Tabs

Phil Collins Chords & Tabs

Version: 3 Type: Tab 0 ratings
1 star 2 stars 3 stars 4 stars 5 stars
comments

Another Day In Paradise Tab

e-----------------------------------|
a---10--10h12-12p10---9---7---------|
d----9---9--9--9--9---9---7---------|
g---11--11-11-11-11---9---7---------|
b----9----------------7---5---------|
e-----------------------------------|
Rythm
e-------------------------------------------------------------------|
a-----10--12-13--12--10-9--------------10--12-13-12-10-9------------|
d-------------------------11-9----------------------------9---------|
g------------------------------------------------------------12-----|
b-------------------------------------------------------------------|
e-------------------------------------------------------------------|
lead
[ Tab from: http://www.guitartabs.cc/tabs/p/phil_collins/another_day_in_paradise_tab_ver_3.html ]
Comments