Phil Collins - Another Day In Paradise Chords & Tabs

 

Another Day In Paradise Chords & Tabs

Phil Collins Chords & Tabs

Version: 2 Type: Tab 0 ratings
1 star 2 stars 3 stars 4 stars 5 stars
comments

Another Day In Paradise Tab

I have seen this tab already posted but as i was listening to the
song i noticed a little part was missing and here it is
Basically the same thing but a little change at the end
                                        Aaron
[ Tab from: http://www.guitartabs.cc/tabs/p/phil_collins/another_day_in_paradise_tab_ver_2.html ]
e-5-5-7-5-----------------------------|
B---------9-7-5-5/7-------------------|
G-------------------------------------|
D-------------------------------------|
A-------------------------------------|
E-------------------------------------|


e-5-5-7-5-----------------------------|
B---------9-7-5-5-3-------------------|
G-------------------------------------|
D-------------------------------------|
A-------------------------------------|
E-------------------------------------|
Comments