Phenix - Why Chords & Tabs

 

Why Chords & Tabs

Phenix Chords & Tabs

Version: 1 Type: Tab 0 ratings
1 star 2 stars 3 stars 4 stars 5 stars
comments

Why Tab

   
Song : Why?
Artist : Phenix
Album : Trilogy and My Backyard EP

(this song is just a continuation of "Celebration of the Dead")

Tuning: standard, CAPO II

intro :

G-----0-----0-----0-
D---------0-----0---
A---4---------------
E-5-----3-----0----- (play over and over about 8 times)

verses :

A-4--4--4-4-4/5--5-5-5-5/2--2--0h2/3/2/0-
E-5--5--5-5-5/3--3-3-3-3/0--0--0-0-0-0-0-

Between verses :

G-----0-------0-------0----0----------
D-------0---0---0---0---0----0--0-0-0-
A---4---------------------------------
E-5-------3-------0-------------------

chorus :

D-----------------------------------------------------5--5-5-5/-----
A-4--4--4-4-4/5--5-5-5-5/2--2--2-2-2--2---4--4--4-4-4/3--3-3-3/2--2-
E-5--5--5-5-5/3--3-3-3-3/0--0--0-0-0--0---5--5--5-5-5----------0--0-

then after the chorus play :

A-5--5-5-5/0--0-0-0-2--2--2-
E-3--3-3-3-3--3-3-3-0--0--0-

then the ending part is all like :
[ Tab from: http://www.guitartabs.cc/tabs/p/phenix/why_tab.html ]
Dmaj? Gadd Em Dmaj? Cadd Em Gadd G Em Gadd G Em 

then just play Gadd G Em over for the rest of the song then play the part that goes 
in between the verses and then play the intro then this :

e----------------0-
B------------0-----
G--------0---------
D----0-------------
A------------------
E-0----------------

chords :

Dmaj?: e-0  Gadd: e-0  Em: e-0  Cadd: e-0  G: e-0
       B-0        B-0      B-0        B-0     B-0
       G-0        G-x      G-0        G-5     G-0
       D-0        D-5      D-2        D-5     D-0
       A-4        A-5      A-2        A-3     A-0
       E-5        e-3      e-0        e-x     e-3
Comments