Phenix - When Time Stops Chords & Tabs

 

When Time Stops Chords & Tabs

Phenix Chords & Tabs

Version: 1 Type: Tab 0 ratings
1 star 2 stars 3 stars 4 stars 5 stars
comments

When Time Stops Tab

Song : When Time Stops
Artist : Phenix
Album : All I Could Have Ever Been

verses :

Gtr1: e-0--7/5-0---2/3-0-
[ Tab from: http://www.guitartabs.cc/tabs/p/phenix/when_time_stops_tab.html ]
Gtr2  e-0-00-0-0-----3-3-
      B-0-03-3-1-----3-3-
      G-0-02-2-0-----0-0-
      D-0-00-0-2---------
      A-2-20-0-0---------
      E-3-30-0-----------

chorus :

Gtr1: e-0--3/5-2--0-

Gtr2: e-0--0-0-0--0-
      B-0--0-2-0--0-
      G-0--0-2-3--0-
      D-2--0-2-4--2-
      A-2--2-0-4--2-
      E-0--3---2--0-
   

and that's about it.
The End...
Comments