Phenix - My Backyard Chords & Tabs

 

My Backyard Chords & Tabs

Phenix Chords & Tabs

Version: 1 Type: Tab 0 ratings
1 star 2 stars 3 stars 4 stars 5 stars
comments

My Backyard Tab

   
Song : My Backyard
Artist : Phenix
Album : My Backyard EP

Tuning : 1/2 step down

Chorus : 

eb-0--0---0-0-0-0----0--0---0-0-0-0-
Bb-3--3---0-0-0-0----3--3---3-3-3-0-     x2
Gb-0--0---2-2-2-0----0--0---2-2-2-0-
Db-2--2---2-2-2-0----2--2---0-0-0-0-
Ab-3--3---0-0-0-2----3--3---0-0-0-2-
Eb-x--x---x-x-x-3----x--x---x-x-x-3-

Verses:
[ Tab from: http://www.guitartabs.cc/tabs/p/phenix/my_backyard_tab.html ]
Gb---7---7-------6---6---------4---4-------4---4---------6---4---4-
Db--7-----7-----7-----7-------5-----5-----4-----4-------7---5------
Ab-5--7----7-5-5--7----7-5---3--5----5-3-2--4----4-2---5---3----5--
Eb-------------------------------------------------------------3---

and then the music break thingy

eb-3-3-3-3-3-3-3-3-3-3-3-3-3-3-3-3-
Bb-3-3-3-3-3-3-3-3-3-3-3-3-3-3-3-3-
Gb-2-2-2-2-2-2-2-2-2-2-2-2-2-2-2-2-
Db-0-0-0-0-0-0-0-0-0-0-0-0-0-0-0-0-
Ab-0-0-0-0-0-0-0-0-0-0-0-0-0-0-0-0-
eb-2-2-2-2-2-2-2-2-3-3-3-3-3-3-3-3-

and the song ends on 

eb-0--0-
Bb-3--3-
Gb-0--0-
Db-2--2-
Ab-3--2-

and that's about it?
The End...
Comments