Phenix - In My Way Chords & Tabs

 

In My Way Chords & Tabs

Phenix Chords & Tabs

Version: 1 Type: Tab 0 ratings
1 star 2 stars 3 stars 4 stars 5 stars
comments

In My Way Tab

   
Song : In My Way
Artist : Phenix
Album : Pirate Show EP

Tuning : 1/2 step down and drop G and CAPO on the 3rd fret

Verses :

Gb-------0----------------0--------------
Db---0-------0---0----2-------2---2---2--
Gb--0---0---0---0----2---2---2---2---2---
Db-0---0---0---0--1-2---2---2---2---2--1-

Chorus :

(keep hitting the strings all open)

Ending :
[ Tab from: http://www.guitartabs.cc/tabs/p/phenix/in_my_way_tab.html ]
Db-0-0-0-5-5-5-3-3-3-2-2-2-3-3-3-
Bb-0-0-0-0-0-0-0-0-0-0-0-0-0-0-0-
Gb-0-0-0-0-0-0-0-0-0-0-0-0-0-0-0-
Db-0-0-0-0-0-0-0-0-0-0-0-0-0-0-0-
Gb-0-0-0-0-0-0-0-0-0-0-0-0-0-0-0-
Db-0-0-0-0-0-0-0-0-0-0-0-0-0-0-0-

play that over and over then

Db-0-0-0-0-0-0-0-0-0-0-0-0-
Bb-0-0-0-0-0-0-0-0-0-0-0-0-
Gb-0-0-0-0-0-0-0-0-0-0-0-0-
Db-0-0-0-0-0-0-0-0-0-0-0-0-
Gb-0-0-0-0-0-0-0-0-0-0-0-0-
Db-5-5-5-3-3-3-2-2-2-3-3-3-

then 

Db-5-5-5-3-3-3-2-2-2-3-3-3-
Bb-0-0-0-0-0-0-0-0-0-0-0-0-
Gb-0-0-0-0-0-0-0-0-0-0-0-0-
Db-0-0-0-0-0-0-0-0-0-0-0-0-
Gb-0-0-0-0-0-0-0-0-0-0-0-0-
Db-5-5-5-3-3-3-2-2-2-3-3-3-

last note of the song

Db-5-
Bb-3-
Gb-0-
Db-0-
GB-0-
Db-0-
Comments