Phenix - Hate Chords & Tabs

 

Hate Chords & Tabs

Phenix Chords & Tabs

Version: 1 Type: Tab 0 ratings
1 star 2 stars 3 stars 4 stars 5 stars
comments

Hate Tab

   
Song : Hate
Artist : Phenix
Album : Lip on the Sun (single)

^ = Bend

Main riff :

D-------6-6--6-/5-5-5-5-2-2-2-2-
A-------6-6--6-/5-5-5-5-2-2-2-2-
E-0h3/4-4-4--4-/3-3-3-3-0-0-0-0-

play that through all the verses

Pre-Chorus :
[ Tab from: http://www.guitartabs.cc/tabs/p/phenix/hate_tab.html ]
G--------8--8-8-4--4-4---------
D-6--6-6-8--8-8-4--4-4-4---4---
A-6--6-6-6--6-6-2--2-2-4---4---
E-4--4-4---------------2p0h2p0-

Chorus :

G-------------------7-7-
D-6---6-7---7-4---4-7-7-
A-6---6-7---7-4---4-5-5-
E-4---4-5---5-2---2-----

Solo :

D-0h3/4-4---4-4-333222111-4-4---4-333222111-

play that a lot then play (and bend the notes after awhile)

D-8-8-8-8-8-8-8-8/19^

and that's it.
The End...
Comments