Phenix - From New York Chords & Tabs

 

From New York Chords & Tabs

Phenix Chords & Tabs

Version: 1 Type: Tab 0 ratings
1 star 2 stars 3 stars 4 stars 5 stars
comments

From New York Tab

Song : From New York
Artist : Phenix
Album : Brainkillers Threshold

Main riff :
e------------0---------------0--
B-------------1----------------1
G-----------0---0-----------0-0-
D--4-4-4-4-2---2---4-4-4-4-2----
A-5-5-5-5-3-------5-5-5-5-3-----

you just keep playing that until the screaming part and then you play this
[ Tab from: http://www.guitartabs.cc/tabs/p/phenix/from_new_york_tab.html ]
e-0-----2-----2---2----------0-2---2---5---5---7---55
B--1---1-3-----3---1---1-1------3---3---6---5---7---5
G---0-0---2-----2---2-----2------2---2---5---6---8--6
D----2-----0-0---0---2-----2------0---0---0---7---9-7
A---------------------0-----0-----------------7---9-7
E---------------------------------------------0---7-5

then you just play : A B G D  (they're bar chords, just so you know)
its pretty much like the bass line to Hurt by Nine Inch Nails
and thats like the end...               so... THE END!!!
Comments