Phaze - T-man Chords & Tabs

 

T-man Chords & Tabs

Phaze Chords & Tabs

Version: 1 Type: Bass Tab 0 ratings
1 star 2 stars 3 stars 4 stars 5 stars
comments

T-man Bass Tab

   
Song:T-Man
Band:Phaze
Music:T4,Sage
Album:Phaze
Tabber:T4-TURBO

Main:
g:-------------------------------|
d:-------------------------------|
a:-------------------------------|
e:7-0-0-0-7-0-0-0-7-0-7-0-7-0-0-0|
b:-------------------------------|
[ Tab from: http://www.guitartabs.cc/tabs/p/phaze/t_man_btab.html ]
2nd:
g:-----------------------------|
d:-----------------------------|
a:-----------------------------|
e:5-0-0-0-3-3-5---5-0-0-0-3-3-6|
b:-----------------------------|

3rd:
g:-----------------------------|
d:--------7-7-9----------7-7-10|
a:--------5-5-7----------5-5-8-|
e:5-0-0-0--------5-0-0-0-------|
b:-----------------------------|

Bridge:Slap
g:-----------|
d:x2x2x33x3-3|
a:-----------|
e:-----------|
b:-----------|

Bridge:2
g:-----------|
d:x2x2x33x3-3|
a:x2x2x33x3-3|
e:-----------|
b:-----------|
Comments