Phaze - Sonic Titan Chords & Tabs

 

Sonic Titan Chords & Tabs

Phaze Chords & Tabs

Version: 1 Type: Bass Tab 0 ratings
1 star 2 stars 3 stars 4 stars 5 stars
comments

Sonic Titan Bass Tab

Song:Sonic TiTan
Band:Phaze
Album:Phaze
Tabber:T4-TURBO

Mian:
g:---------------------------------|
d:---------------------------------|
a:------7-7--7-7-------------------|
e:7-7-7----------5-5--5-5--3-3--3-3|
b:---------------------------------|
[ Tab from: http://www.guitartabs.cc/tabs/p/phaze/sonic_titan_btab.html ]
Riff 2:
g:------------------------------------------------|
d:--9h11p9----------9h11p9-12----12----12----12---|
a:9--------9-7-3--9-----------11----11----11----11|
e:------------------------------------------------|
b:------------------------------------------------|

Bass solo\bridge:Theres alot of veri-ation on 
this but these is the basic notes
g:-------------------|
d:-----8888----------|
a:8888------6666-4444|
e:-------------------|
b:-------------------|

end:
g:---------------0|
d:---------------0|
a:---------------0|
e:---------------0|
b:7-3----5-1-----0|
Comments