Phaze - Nodd Ya Head Chords & Tabs

 

Nodd Ya Head Chords & Tabs

Phaze Chords & Tabs

Version: 1 Type: Bass Tab 0 ratings
1 star 2 stars 3 stars 4 stars 5 stars
comments

Nodd Ya Head Bass Tab

Song:Nodd Ya Head
Band:Phaze
Album:Phaze
Tabber:T4-TURBO

Main:
g:-------------------|
d:-------------------|
a:-------------------|
e:----3--------------|
b:3-3---3-3--3-3--3-3|
[ Tab from: http://www.guitartabs.cc/tabs/p/phaze/nodd_ya_head_btab.html ]
PreChorus:
g:-------------------|
d:-------------------|
a:----3--------------|
e:3-3---3-3--3-3--3-3|
b:-------------------|

Riff 2:
g:----------------------|
d:-----------------0-1-3|
a:0-1-0-3--0-1-0-3------|
e:----------------------|
b:----------------------|

Thats it 

Song Order

Guitar Intro:x4
Main:X4
Prechorus:X4
Riff2:X4
Repeat This Order X 2
Comments