Phaze - Jza-70 Chords & Tabs

 

Jza-70 Chords & Tabs

Phaze Chords & Tabs

Version: 1 Type: Bass Tab 0 ratings
1 star 2 stars 3 stars 4 stars 5 stars
comments

Jza-70 Bass Tab

   
Song:JZA-70

Band:Phaze

Music:Jo,Dante,Trevor.

Tabber:T4-TURBO

Album:Phaze

Intro Palm muted:
g:----------------------------------------|
d:---------9-10-10-10-10---------7-8-8-8-8|
a:9-9-9-10---------------7-7-7-8----------|
e:----------------------------------------|
b:----------------------------------------|X2

Main Riff:
g:----------------------------------------|
d:---------9-10-10-10-10---------7-8-8-8-8|
a:9-9-9-10---------------7-7-7-8----------|
e:----------------------------------------|
b:----------------------------------------|X8

2nd Riff:
g:----------------------------------|
d:-----------------9-9-9--10-10-10--|
a:9-9-9--10-10-10-------------------|
e:----------------------------------|
b:----------------------------------|X2
[ Tab from: http://www.guitartabs.cc/tabs/p/phaze/jza_70_btab.html ]
3rd Riff:
g:-----------------------------------------------------------|
d:------------------------------9-9-9-9-9-9-10-10-10-10-10-10|
a:9-9-9-9-9-9-10-10-10-10-10-10------------------------------|
e:-----------------------------------------------------------|
b:-----------------------------------------------------------|X2

Fill:
g:-----|
d:-----|
a:10\\\|
e:-----|
b:-----|

Bridge:Part 1
g:------------------------------------------------|
d:-------7------------7-----------4------------4--|
a:5--5-5---5-5--5-5-5---5--2--2-2---2-2--2-2-2---2|
e:------------------------------------------------|
b:------------------------------------------------|X4

Bridge Part 2:
g:------------------------------------|
d:------------------------------------|
a:000-4-0-5-0-6-0-7--000-4-0-3-0-2-0-1|
e:------------------------------------|
b:------------------------------------|X4
Play this thru twiz And then go to the end:
end Part1
g:---------------------------|
d:---------------------------|
a:---------------------------|
e:---------------------------|
b:5--8-0-2-3--3--5--8-0-2-3--|X2
Comments