Phaze - Jungle Se-shenz Chords & Tabs

 

Jungle Se-shenz Chords & Tabs

Phaze Chords & Tabs

Version: 1 Type: Bass Tab 0 ratings
1 star 2 stars 3 stars 4 stars 5 stars
comments

Jungle Se-shenz Bass Tab

Song:Jungle Se-Shenz

Band:Phaze

Music:Jo Gates (With Help From My Brother Whos Our lead Guitar Player)

Tabber:T4-TURBO

Album:Phaze
[ Tab from: http://www.guitartabs.cc/tabs/p/phaze/jungle_se_shenz_btab.html ]
Main Riff:
g:----------------------------------------|
d:---------9-10-10-10-10---------7-8-8-8-8|
a:9-9-9-10---------------7-7-7-8----------|
e:----------------------------------------|
b:----------------------------------------|

2nd Riff:
g:-----------------------------------------------------------|
d:------------------------------9-9-9-9-9-9-10-10-10-10-10-10|
a:9-9-9-9-9-9-10-10-10-10-10-10------------------------------|
e:-----------------------------------------------------------|
b:-----------------------------------------------------------|

Just Repeat This.
Comments