Pharrell Williams - Happy Chords & Tabs

 

Happy Chords & Tabs

Pharrell Williams Chords & Tabs

Version: 3 Type: Tab 0 ratings
1 star 2 stars 3 stars 4 stars 5 stars
comments

Happy Tab

   
Hi everyone,
I made this TAB based on my Videotutorial. It is in German, but you might find it 
helpful after all.


Check it out!!! http://youtu.be/t2x6zTIO_nQ

Here you can find the Cover to get a feeling how it sounds: http://youtu.be/mOX43oI9FuQ

NO CAPO!!!

Intro/Verse:

e|------------------------|------------------------|---x-----x-----x--x-----|
B|------------------------|------------------------|---x-----x-----x--x-----|
G|------------------------|------------------------|---x-----x-----x--x-----|
D|------------------------|------------------------|---x-----x-----x--x-----|
A|------------1--------3--|---3-----1-----1--------|---x-----x-----x--x-----|
E|1-----4-----------4-----|------------------4-----|1--x-----x-----x--x-----|
  1  &  2  &  3  &  4  &   1  &  2  &  3  &  4  &   1  &  2  &  3  &  4  &

e|---x-----x-----x--x-----|
B|---x-----x-----x--x-----|
G|---x-----x-----x--x-----|
D|---x-----x-----x--x-----|
A|---x-----x-----x--x-----|
E|---x-----x-----x--x-----|
  1  &  2  &  3  &  4  &

Refrain:
Chords (Finger in brackets)
[ Tab from: http://www.guitartabs.cc/tabs/p/pharrell_williams/happy_tab_ver_3.html ]
  DesMaj7/9  C-Minor7    F7-------------------------------------------|          
Es-Major    F-MinorB5   F-Major
e|--0-----|  |--x-----|  |--1(1)--|  |--x-----|  |--x-----|  |--x-----|
B|--4(3)--|  |--4(4)--|  |--1(1)--|  |--x-----|  |--x-----|  |--x-----|
G|--5(4)--|  |--3(3)--|  |--2(2)--|  |--3(4)--|  |--4(4)--|  |--5(4)--|
D|--3(1)--|  |--1(1)--|  |--1(1)--|  |--1(1)--|  |--3(1)--|  |--3(1)--|
A|--4(2)--|  |--3(2)--|  |--3(3)--|  |--x-----|  |--x-----|  |--x-----|
E|--x-----|  |--x-----|  |--1(1)--|  |--3(3)--|  |--4(3)--|  |--5(3)--|

F7/9
|--8(4)--|
|--8(4)--|
|--8(4)--|
|--7(1)--|
|--8(3)--|
|--x-----|


Because I'm     (happy)

DesMaj7/9  C-Minor7           C-Minor7       F7
Clap along if you feel like a room without a roof

Because I'm      (happy)

DesMaj7/9  C-Minor7         C-Minor7          F7   Es-Major F-MinorB5 F-Major
Clap along if you feel like happiness is the  truth

Because I'm     (happy)

DesMaj7/9  C-Minor7         C-Minor7        F7
Clap along if you know what happiness is to you

Because I'm     (happy)
DesMaj7/9  C-Minor7         C-Minor7            F7 Es-Major F-MinorB5 F-Major
Clap along if you feel like that's what you wanna do


Bridge:
For the brigde like to do a rhythm by hitting on the guitar. So basically, I Strumm the
F7/9 on the first beat and do the drumming for the rest of the part.

Check out the Video: http://youtu.be/t2x6zTIO_nQ

Have fun!!!
Comments