Pharrell Williams - Gust Of Wind Chords & Tabs

 

Gust Of Wind Chords & Tabs

Pharrell Williams Chords & Tabs

Version: 1 Type: Bass Tab 0 ratings
1 star 2 stars 3 stars 4 stars 5 stars
comments

Gust Of Wind Bass Tab

Did a YouTube cover of this song and had some tab requests, so here it is. I did the tab 
based on my cover, so the fills may not be the same as the original song, especially in 
the chorus. Let me know if anything looks incorrect.

Here's the video: http://youtu.be/M1nyen3ws2w

Intro

G|---------------------------------------------------------------------------|
D|---------------------------------------------------------------------------|
A|-6--3-6--3-6--3-6--3-------------------------------------------------------|
E|---------------------------------------------------------------------------|

Verse - same throughout song
[ Tab from: http://www.guitartabs.cc/tabs/p/pharrell_williams/gust_of_wind_btab.html ]
G|---------------------------------------------------------------------------|
D|----------------------3-66-3-8-6-3-----------------------------------------|
A|-6--3--6-------3-6--6--------------6---------------------------------------|
E|----------4--6-----------------------1--1--1-1--1-1-1--1--1--1-1--1-1-1----|

Chorus - same throughout song

G|---------------------------------------------------------------------------|
D|-6--5------------6-8-6--5------------6---8-6-----6--5------------6-------8-|
A|-------6--8--6-8-----------6--8--6-8---8-----8-6-------6--8--6-8---8-6-8---|
E|---------------------------------------------------------------------------|

G|-------------------5-8-5---------------------------------------------------|
D|6--6--5--------6-8-------8-6-----------------------------------------------|
A|---------6--8----------------8---------------------------------------------|
E|---------------------------------------------------------------------------|
Comments