Phantom Planet - Waiting Around Chords & Tabs

 

Waiting Around Chords & Tabs

Phantom Planet Chords & Tabs

Version: 1 Type: Tab 0 ratings
1 star 2 stars 3 stars 4 stars 5 stars
comments

Waiting Around Tab

Phantom Planet-waiting around
Most of the song is palm muted
Intro
e|-3----------------|
b|-3----------------|
g|-4-----5-----7----|
d|-5-----5-----7----|
a|-5-----3-----5----|
e|-3----------------|

Verse
e|--------3--------------------------------------------|
b|--------3--------------------------------------------|
g|--------4-------------------------5------7-----------|
d|--------5-------------------------5------7-----------|
a|--------5-------------------------3------5-----------|
e|--------3--------------------------------------------|
girl you know it's wrong that you lead me on

e|-------------------------------------------------------|
b|-------------------------------------------------------|
g|--------9--------------------------5-------7-----------|
d|--------9--------------------------5-------7-----------|
a|--------7--------------------------3-------5-----------|
e|-------------------------------------------------------|
you know one day i wont be here any more oh yeah

e|--------3--------------------------------------------|
b|--------3--------------------------------------------|
g|--------4-----------------------5-------7------------|
d|--------5-----------------------5-------7------------|
a|--------5-----------------------3-------5------------|
e|--------3--------------------------------------------|
  and it hurts like hell, but i wish you well
[ Tab from: http://www.guitartabs.cc/tabs/p/phantom_planet/waiting_around_tab.html ]
e|-----------------------------------------------------------------|
b|-----------------------------------------------------------------|
g|----------9--------------------------------------5-------------7-|
d|----------9--------------------------------------5-------------7-|
a|----------7--------------------------------------3-------------5-
e|-----------------------------------------------------------------|
cause that dude that you're with is gonna put you down, put you down

Chorus
e|----------------------------------------------3------|
b|----------------------------------------------3------|
g|-------------5--------------7-----------------4------|
d|-------------5--------------7-----------------5------|
a|-------------3--------------5-----------------5------|
e|----------------------------------------------3------|
and i'll be waiting around, waiting around for you 

e|----------------------------------------------3------|
b|----------------------------------------------3------|
g|-------------5--------------7-----------------4------|
d|-------------5--------------7-----------------5------|
a|-------------3--------------5-----------------5------|
e|----------------------------------------------3------|
    i'll be waiting around, waiting around for you 

you dont call me back, but you never have
and it fills up, and cried enough to drive me mad, oh yeah
but i understand, you found a brand new band
and i hope someday somebody breaks your heart in two, your heart in two

and i'll be waiting around, waiting around for you 
i'll be waiting around, waiting around for you, oh yeah
i'll be waiting around, waiting around for you
(Solo)
oh yeah
going to break your heart in two, your heart in two
and i'll be waiting around, waiting around for you 
yeah i'll be waiting around, waiting around for you 
yeah i'll be waiting around, waiting around for you
yeah i'll be waiting around, waiting around for you, uh huh
i'll be waiting around, waiting around for you

The verse and chorus are basically the same throughout the whole song, there might be a
little variation but it's easy to figure it out.
That's it! Questions? Comments! compu2thamax@aol.com
Comments