Phantom Planet - Somebodys Baby Chords & Tabs

 

Somebodys Baby Chords & Tabs

Phantom Planet Chords & Tabs

Version: 2 Type: Tab 0 ratings
1 star 2 stars 3 stars 4 stars 5 stars
comments

Somebodys Baby Tab

   
Song/Title: Somebody’s Baby (Cover)
Artist:  Phantom Planet (originally by Jackson Browne)
Album: Not Another Teen Movie Soundtrack
Tuning:  Standard E A D G B E (low to high)
Transcribed by: Daniel LaPel
Ivandrago1417@yahoo.com

Listen to the song for timing...

Intro/Chorus

Guitar 1
------------------------------------------------------|
--8-8--6--8---8---8---5--4--4--4--4--8--8--x--6--6----|
--8-8--7--8---8---8---7--5--5--5--5--8--8--x--7--7----|
--8-8--8--10--10--10--8--6--6--6--6--8--8--x--8--8----|
--6-6--8--10--10--10--8--6--6--6--6--6--6--x--8--8----|
--x-x--6--8---8---8---6--4--4--4--4--x--x-----6--6----|2x

Guitar 2
------------------------------------------------------|
--6--7--6--7--6--7--6--7--6--6--4--4--7--7--6--6------|
--7--7--7--7--7--7--7--7--7--7--5--5--7--7--7--7------|
------------------------------------------------------|
------------------------------------------------------|
------------------------------------------------------|1x

--6--6--4--3--1---------------------------------------|
--8--8--6--4--3--4--6--7--7--6--6--4--4--7--7--6--6---|
-----------------5--7--7--7--7--7--5--5--7--7--7--7---|
------------------------------------------------------|
------------------------------------------------------|
------------------------------------------------------|1x

Verse
[ Tab from: http://www.guitartabs.cc/tabs/p/phantom_planet/somebodys_baby_tab_ver_2.html ]
Guitar 1
-----------------------------------------------------------------|
-----------------------------------------------------------------|
-------------------------------------------8--8--8-s-10--------8-|
--6--6--6--6--8--8--8--8--10--10--10--10---8--8--8-s-10--8--8--8-|
--6--6--6--6--8--8--8--8--10--10--10--10---6--6--6-s-8---8--8--6-|
--4--4--4--4--6--6--6--6--8---8---8---8------------------6--6----|1x (P.M.)

------------------|
------------------|
------------------|
--6--------8------|
--6-(x8)---8-(x8)-|
--4--------6------|2x (P.M.)

-----------------------------------------------------------------|
-----------------------------------------------------------------|
-------------------------------------------8--8--8-s-10--------8-|
--6--6--6--6--8--8--8--8--10--10--10--10---8--8--8-s-10--8--8--8-|
--6--6--6--6--8--8--8--8--10--10--10--10---6--6--6-s-8---8--8--6-|
--4--4--4--4--6--6--6--6--8---8---8---8------------------6--6----|1x (P.M.)

Guitar 2
----------------------|
---4-4-4--3-3-3--4----|
---5-5-5--3-3-3--5----|
----------------------|
----------------------|
----------------------|

Guitar 1
------------------|
------------------|
------------------|
--6--------8------|
--6-(x8)---8-(x8)-|
--4--------6------|2x (P.M.)

Guitar 2
--6--6--4--3--3--4--3--1--|
--8--8--6--4--4--6--4--3--|
--------------------------|
--------------------------|
--------------------------|
--------------------------|1x

Back to Intro/Chorus

Interlude/Bridge

Guitar 1
------------------|
------------------|
------------------|
--6---8---10------|
--6---8---10------|
--4---6---8-------|2x (P.M.)

Guitar 2 (clean)
Just strum above the rhythm with those same chords 


Any questions, comments, complaints...HOLLA!

"All our young lives we search for someone to love, someone who makes us
complete.We choose partners and change partners. We dance to the song of
heartbreak and hope all the while wondering if somewhere and somehow there is
someone searching for us."

-Kevin Arnold, The Wonder Years
Comments