Phantom Planet - Knowitall Chords & Tabs

 

Knowitall Chords & Tabs

Phantom Planet Chords & Tabs

Version: 1 Type: Bass Tab 0 ratings
1 star 2 stars 3 stars 4 stars 5 stars
comments

Knowitall Bass Tab

   
Artist:Phantom Planet
Song: Knowitall
Album: Phantom Planet
Track: #8

Intro:
G|-------------------------------------|
D|-------------------------------------|
A|-------------------------------------|
E|-0-0-0-0-4-4-4-4-0-0-0-0-4-4-4-4-----|

Main Riff:
G|---------------------------------------------------------------------------|
D|-------9\------------------------------------------------------------------|
A|-4-44-4----777-7-79\-------------------------------------------------------|
E|----------------------5-55-57\--222-2-20~-----55-22-55-22------------------|
[ Tab from: http://www.guitartabs.cc/tabs/p/phantom_planet/knowitall_btab.html ]
Chorus:
G|-------------------------------------------------------------------------|
D|-------------------------------------------------------------------------|
A|-----------------666666xx666666xx666666xx--------------------------------|
E|-000000-0444444-4------------------------5555555555554444----------------|

G|--------------------------------------------------------------------------|
D|--------------------------------------------------------------------------|
A|--------------------------------------------------------------------------|
E|-000000-0444444-4000000-0999944447777777777777777777777775555555555554444-|

G|-------------------------------------------------------------------------|
D|-------------------------------------------------------------------------|
A|-------------------------------------------------------------------------|
E|-000000-0444444-4000000-0444444-4----------------------------------------|

Thats basically the whole song. Figure out when to repeat the main riff and the chorus 
thats it. Please rate this tab!
Comments