Phantom Planet - Do The Panic Chords & Tabs

 

Do The Panic Chords & Tabs

Phantom Planet Chords & Tabs

Version: 1 Type: Tab 0 ratings
1 star 2 stars 3 stars 4 stars 5 stars
comments

Do The Panic Tab

 Phantom Planet-Do The Panic
 Intro
e|----------------------------------------------|
b|----------------------------------------------|
g|----------------------------------------------|
d|----6---4---2-----6---6---6---4---6---4-------|
a|----0---0---0-----2---2---2---2---2---2-------|
e|----------------------------------------------|

e|-------------------------------------|
b|-------------------------------------|
g|-------------------------------------|
d|----6---4---2-----6---6---6---4------|
a|----0---0---0-----2---2---2---2------|
e|-------------------------------------|

Verse: "listen to the song for the timing"

I guess I got in trouble too, nothing left for me to do, 
e|-----------------------------------------------------|
b|-----------------------------------------------------|
g|--9---------------------------6----------------------|
d|--9---------------------------6----------------------|
a|--7---------------------------4----------------------|
e|-----------------------------------------------------|

   I guess I forgot to play it cool,
e|------------------------------------|
b|------------------------------------|
g|--2---------------------------4-----|
d|--2---------------------------4-----|
a|--0---------------------------2-----|
e|------------------------------------|

  I put on my walking shoes, walked out to the swimming pool, 
e|-----------------------------------------------------|
b|-----------------------------------------------------|
g|--9---------------------------6----------------------|
d|--9---------------------------6----------------------|
a|--7---------------------------4----------------------|
e|-----------------------------------------------------|

  told the lifeguard that I think she's cool
e|---------------------------------------------|
b|---------------------------------------------|
g|--2------------------------------------4-----|
d|--2------------------------------------4-----|
a|--0------------------------------------2-----|
e|---------------------------------------------|

I guess I forgot to play it cool, that's when 
e|---------------------------------------------|
b|---------------------------------------------|
g|--2-------------------------4----------------|
d|--2-------------------------4----------------|
a|--0-------------------------2----------------|
e|---------------------------------------------|
[ Tab from: http://www.guitartabs.cc/tabs/p/phantom_planet/do_the_panic_tab.html ]
She started doing to panic, doing the panic, doing the panic.....
e|----------------------------------------------|
b|----------------------------------------------|
g|----------------------------------------------|
d|-6---4---2-----6---6---6---4---6---4----------|
a|-0---0---0-----2---2---2---2---2---2----------|
e|----------------------------------------------|

e|-------------------------------------|
b|-------------------------------------|same as Intro
g|-------------------------------------|repeat as necessary
d|-6---4---2-----6---6---6---4---------|
a|-0---0---0-----2---2---2---2---------|
e|-------------------------------------|

Chorus: "listen to the song for the timing"
c'mon c'mon               it's set to lose control.......
e|------------------------------------------------------|
b|------------------------------------------------------|
g|------------------------------------------------------|
d|---2---------------------7----------9-----------2-----|
a|---2---------------------7----------9-----------2-----|
e|---0---------------------5----------7-----------0-----|

 c'mon c'mon                 turn on your radio.........  
e|------------------------------------------------------|
b|------------------------------------------------------|
g|------------------------------------------------------|
d|---2---------------------7----------9-----------2-----|
a|---2---------------------7----------9-----------2-----|
e|---0---------------------5----------7-----------0-----|

c'mon c'mon                you're gonna feel alright
e|------------------------------------------------------|
b|------------------------------------------------------|
g|------------------------------------------------------|
d|---2---------------------7----------9-----------2-----|
a|---2---------------------7----------9-----------2-----|
e|---0---------------------5----------7-----------0-----|

c'mon c'mon                let's do the panic tonight!
e|------------------------------------------------------|
b|------------------------------------------------------|
g|------------------------------------------------------|
d|---2---------------------7----------9-----------2-----|
a|---2---------------------7----------9-----------2-----|
e|---0---------------------5----------7-----------0-----|

Repeat intro

Do the same thing for the next verse and chorus.  That's it. This is a real fun song to play!
Comments