Phantom Planet - California (the Oc Theme Tune) Chords & Tabs

 

California (the Oc Theme Tune) Chords & Tabs

Phantom Planet Chords & Tabs

Version: 1 Type: Bass Tab 2 ratings
1 star 2 stars 3 stars 4 stars 5 stars
comments

California (the Oc Theme Tune) Bass Tab

   
|==================================================================================|

 Artist: Phantom Planet
 Song: California
 Album: The Guest
 Tabbed By: Rob Dickie || rogggo@gmail.com
 Instrument(s): Bass Guitar
 Tuning: Standard - E A D G

 BRIEF: 
 Doing this song for my GCSE music exam, and couldn't find any decent tabs, 
 so decided to do my own! This is also the theme tune of the very popular hit
 show 'The OC'.

 LEGEND:
 h - Hammer On
 p - Pull Off
 [R] - Let Ring
 / - Slide Up
 \ - Slide Down

|==================================================================================|

=========
::INTRO::
=========

		     California Here We Come...			  California Here We Come...
G|------------------|----2-----------2--4-----|------------------|----2---2h4-/-9---4-2--4---|
D|--* 6 Bar Rest *--|----------2-----------2--|--* 2 Bar Rest *--|--------------------------2|
A|------------------|-------------------------|------------------|---------------------------|
E|------------------|-------------------------|------------------|---------------------------|


==========
::BRIDGE::
==========

   Californiaaaaa...
G|--2---2---2---2---|-----------------|-----------------|-----------------|-----------------||
D|------------------|-----------------|-----------------|-----------------|-----------------||
A|------------------|-----------------|-----------------|-----------------|---------7-7-7-7-||
E|------------------|-0-0-0-0-0-0-0-0-|-0-0-0-0-0-0-0-0-|-0-0-0-0-0-0-0-0-|-0-0-0-0---------||


=========
::VERSE::
=========


G|--------------------|-----------2--4------|----4--6---------------|-----------2--4----------|
D|--------------2---2-|------2--4------2--1-|-----------------2---2-|------2--4------2--2-/-7-|
A|--4----2-4--0-------|-0--2----------------|-4-------4--4--0-------|-0--2--------------------|
E|----------------0---|---------------------|-------------------0---|-------------------------|


==========
::CHORUS::
==========

   Californiaaaaa...
G|-----------------|-----------------|-----------------|-----------------|-----------------|
D|-7-7-7-7-7-7-7-7-|-----------------|-----------------|-----------------|-----------------|
A|-----------------|-7---7---7---7---|-7---7---7---7---|-7---7---7---7---|-7---7---7---7---|
E|-----------------|---0---0---0---0-|---0---0---0---0-|---0---0---0---0-|---0---0---0---0-|
[ Tab from: http://www.guitartabs.cc/tabs/p/phantom_planet/california_the_oc_theme_tune_btab.html ]
										
G|-----------------|-----------------|-----------------|-----------------------|
D|-----------------|-----------------|-----------------|---------6/7-9---------|
A|-7---7---7---7---|-7---7---7---7---|-7---7---7---7---|-7---7---------7h9p7h9-|
E|---0---0---0---0-|---0---0---0---0-|---0---0---0---0-|---0---0---------------|


========
::SOLO::
========

  [R][2 bars]		   [R]
G|-----------------|-----------------------|-----4--6---2----------|-----------2--4-/-9--|
D|-----------------|-----------------------|-4/6----------2---2----|------2--4-----------|
A|-4---------------|-4-0-0-------0-0-2-2-4-|----------4------------|-0--2----------------|
E|-----------------|--------0--------------|----------------0------|---------------------|


G|---9-9-9---9-9-9-|---9-9-9---9-9-9-|---9-9-9---9-9-9-|---9-9-9---9h-11-p9------|
D|-----------------|-----------------|-----------------|--------------------11-9-|
A|-----------------|-----------------|-----------------|-------------------------|
E|-----------------|-----------------|-----------------|-------------------------|


============
::BRIDGE 2::
============

   Californiaaaaa... Californiaaaaa... Here we cooommmmeee.............
G|-----------------|-----------------|-----------------|------------------|
D|-----------------|-4-4-4-4-4-4-4-4-|-----------------|------------------|
A|-7-7-7-7-7-7-7-7-|-----------------|-0-0-0-0-0-0-0-0-|-/12-12-12-12-12\-|
E|-----------------|-----------------|-----------------|------------------|


==========
::CHORUS::
==========

   Californiaaaaa...
G|-----------------|-----------------|-----------------|-----------------|
D|-----------------|-----------------|-----------------|-----------------|
A|-7---7---7---7---|-7---7---7---7---|-7---7---7---7---|-7---7---7---7---|
E|---0---0---0---0-|---0---0---0---0-|---0---0---0---0-|---0---0---0---0-|

										
G|-----------------|-----------------|-----------------|--------------9---------------|
D|-----------------|-----------------|-----------------|---------9h11---11p9h11p9-----|
A|-7---7---7---7---|-7---7---7---7---|-7---7---7---7---|-7---7------------------11p9--|
E|---0---0---0---0-|---0---0---0---0-|---0---0---0---0-|---0---0----------------------|


=========
::OUTRO::
=========

   Californiaaaaa... Californiaaaaa... Here we cooommmmeee.............
G|-----------------|-----------------|---------------1-|-2-2-2-2-2-2-2-2--|
D|-----------------|-----------------|-----------2-4---|------------------|
A|-----------------|-----------------|-0-0-0-0-0-------|------------------|
E|-0-0-0-0-0-0-4-4-|-2-2-2-2-2-2-4-4-|-----------------|------------------|

  [R][2 bars]
G|-----------------|
D|-----------------|
A|-4---------------|
E|-----------------|
Comments