Phantom Planet - California Chords & Tabs

 

California Chords & Tabs

Phantom Planet Chords & Tabs

Version: 9 Type: Tab 0 ratings
1 star 2 stars 3 stars 4 stars 5 stars
comments

California Tab

---------------------------------------------------------------------------
		      Phantom Planet - California  (Intro)
---------------------------------------------------------------------------Tabbed by: Andrew Swinson
Email: FHLax52@email.com

Tuning: Standard

[ Tab from: http://www.guitartabs.cc/tabs/p/phantom_planet/california_tab_ver_9.html ]
e|---------9----9-----------9----9-----------9----9---11---7-|
B|--9--12----12------9--12----12------9--12----12------------|
G|-----------------------------------------------------------|
D|-----------------------------------------------------------|
A|-----------------------------------------------------------|
E|-----------------------------------------------------------|

e|-----------------------------------------------------------|
B|----9-----------------9----9-----------------9-------------|
G|------11-11--9-9--11---------11-11--9-9--11----------------|
D|-----------------------------------------------------------|
A|-----------------------------------------------------------|
E|-----------------------------------------------------------|
Comments