Phantom Planet - California Chords & Tabs

 

California Chords & Tabs

Phantom Planet Chords & Tabs

Version: 7 Type: Tab 0 ratings
1 star 2 stars 3 stars 4 stars 5 stars
comments

California Tab

#-----------------------------------------------------------------------------#
#-- File created with Instab - http://www.pconline.com/~smcarey/instab.html --#
#-----------------------------------------------------------------------------#

Author/Artist: P.P.
Title: California
Album: Orange County Soudie
Transcribed by: Ben DiPette
Email: funkydevilphs@aol.com
[ Tab from: http://www.guitartabs.cc/tabs/p/phantom_planet/california_tab_ver_7.html ]
-|------------------------------|---------------------|---------------------|-
-|------------------------------|---------------------|---------------------|-
-|-0--3--5--3--5--0--3--5--3--5-|-0--3--5--3--5--7--3-|-0-----------------0-|-
-|------------------------------|---------------------|----3--3--1--1--3----|-
-|------------------------------|---------------------|---------------------|-
-|------------------------------|---------------------|---------------------|-
         California...P.P....This band Rocks Sexier than most                 

--------------------|---------------------------------------------------------
--------------------|---------------------------------------------------------
-0-----------------0|---------------------------------------------------------
----3--3--1--1--3---|---------------------------------------------------------
--------------------|---------------------------------------------------------
--------------------|---------------------------------------------------------
              I think it mite be tuned down a half step...not sure...play it  


 without he music...you'll see its correct, not sure about the key...working  


 on a chord progression
Comments