Phantom Planet - California Chords & Tabs

 

California Chords & Tabs

Phantom Planet Chords & Tabs

Version: 6 Type: Tab 5 ratings
1 star 2 stars 3 stars 4 stars 5 stars
comments

California Tab

   
Phantom Planet - California (Correct)

[ Tab from: http://www.guitartabs.cc/tabs/p/phantom_planet/california_tab_ver_6.html ]
Gtr1
   e|--------------------------------------------
   B|--------------------------------------------
   G|-----4-6-4-6-----4-6-4-6-----4-6-4-6-6/8-4--
   D|--6-----------6-----------6-----------------
   A|--------------------------------------------
   E|--------------------------------------------
Gtr2   C#                                   B E
   e|--------------------------------------------
   B|--------------------------------------------
   G|--6------------------------------------4----
   D|--6------------------------------------4-2--
   A|--4------------------------------------2-2--
   E|-----------------------------------------0--
Gtr1
   e|--------------------------------------------
   B|--------------------------------------------
   G|--------------------------------------------
   D|--6-4-4--2-2--2-4-6-----6-4-4--2-2--2-4-6---
   A|--------------------------------------------
   E|--------------------------------------------
Gtr2   E     A         E            A        E
   e|--------------------------------------------
   B|--------------------------------------------
   G|--------2----------------------2------------
   D|--2-----2---------2------------2--------2---
   A|--2-----0---------2------------0--------2---
   E|--0---------------0---------------------0---

Same chords and melody on verse.

During chorus (californiaaaaaaaaaaaaaaaaaaaaaaaaaaaaaa) its just A and E chords back and forth,
for all you improvers', check below if you want to wig out on solos. Bass pretty much plays
same chords.

     Ab Minor Pentonic with a touch of natural Minor(in pars)
   e|--2---4-----7---9--
   B|--2---4(5)--7---9--
   G|1-----4---6---8(9)-
   D|1(2)--4---6-----9--
   A|--2---4---6(7)--9--
   E|--2---4-----7---9--
Comments