Phantom Planet - California Chords & Tabs

 

California Chords & Tabs

Phantom Planet Chords & Tabs

Version: 5 Type: Tab 15 ratings
1 star 2 stars 3 stars 4 stars 5 stars
comments

California Tab

CALiFORNiA

InTrO..
e|----7--9--7--9-----7--9--7--9-----7--9--7--9--11--7--
B|--9--------------9--------------9--------------------
G|-----------------------------------------------------
D|-----------------------------------------------------
A|-----------------------------------------------------
E|-----------------------------------------------------


e|-----------------------------------------------------
B|--9--7--7------7--9-----9--7--7------7--9------------
G|----------9--9------------------9--9-----------------
D|-----------------------------------------------------
A|-----------------------------------------------------
E|-----------------------------------------------------

VeRsE..

We’ve bin on the run driving in the sun, looking out for number 1
e|--------------------------------------------
B|--------------------------------------------
G|-----4-6-4-6-----4-6-4-6-----4-6-4-6-8-4----
D|--6-----------6-----------6-----------------
A|--------------------------------------------
E|--------------------------------------------

California here we come right back where we started from
e|----------------------------------------------------
B|----------------------------------------------------
G|----------------------------------------------------
D|--6-4-4--2-2--2-4-6-----6-4-4--2-2--2-4-6—6---------
A|----------------------------------------------------
E|----------------------------------------------------

[drums, bass n other guitars join in]
Hustlers grab your guns shadow weighs a tonne driving down the 101
e|--------------------------------------------
B|--------------------------------------------
G|-----4-6-4-6-----4-6-4-6-----4-6-4-6-8-4----
D|--6-----------6-----------6-----------------
A|--------------------------------------------
E|--------------------------------------------

California here we come right back where we started from
e|----------------------------------------------------
B|----------------------------------------------------
G|----------------------------------------------------
D|--6-4-4--2-2--2-4-6-----6-4-4--2-2--2-4-6—6---------
A|----------------------------------------------------
E|----------------------------------------------------
California!
e|----------------------------------------------------
B|----------------------------------------------------
G|----------------------------------------------------
D|--6~—9~—11~—14~~~~-----------------------------—----
A|----------------------------------------------------
E|----------------------------------------------------

Here we come!

On the stereo Listen as we go Nothing’s gonna stop me now
e|--------------------------------------------
B|--------------------------------------------
G|-----4-6-4-6-----4-6-4-6-----4-6-4-6-8-4----
D|--6-----------6-----------6-----------------
A|--------------------------------------------
E|--------------------------------------------
[ Tab from: http://www.guitartabs.cc/tabs/p/phantom_planet/california_tab_ver_5.html ]
California here we come right back where we started from
e|----------------------------------------------------
B|----------------------------------------------------
G|----------------------------------------------------
D|--6-4-4--2-2--2-4-6-----6-4-4--2-2--2-4-6—6---------
A|----------------------------------------------------
E|----------------------------------------------------

Pedal to the floor Thinkin’ of the roar Gotta get us to the show
e|--------------------------------------------
B|--------------------------------------------
G|-----4-6-4-6-----4-6-4-6-----4-6-4-6-8-4----
D|--6-----------6-----------6-----------------
A|--------------------------------------------
E|--------------------------------------------

California here we come right back where we started from
e|----------------------------------------------------
B|----------------------------------------------------
G|----------------------------------------------------
D|--6-4-4--2-2--2-4-6-----6-4-4--2-2--2-4-6—6---------
A|----------------------------------------------------
E|----------------------------------------------------

California!
e|----------------------------------------------------
B|----------------------------------------------------
G|----------------------------------------------------
D|--6~—9~—11~—14~~~~-----------------------------—----
A|----------------------------------------------------
E|----------------------------------------------------

Here we come!
California!
California!
Here we come!!

OuTrO..

e|----7--9--7--9-----7--9--7--9-----7--9--7--9--11--7--
B|--9--------------9--------------9--------------------
G|-----------------------------------------------------
D|-----------------------------------------------------
A|-----------------------------------------------------
E|-----------------------------------------------------

e|----------------------------------------------------
B|----------------------------------------------------
G|----------------------------------------------------
D|--6-4-4--2-2--2-4-6-----6-4-4--2-2--2-4-6—6---------
A|----------------------------------------------------
E|----------------------------------------------------

e|----7--9--7--9-----7--9--7--9-----7--9--7--9--11--7--
B|--9--------------9--------------9--------------------
G|-----------------------------------------------------
D|-----------------------------------------------------
A|-----------------------------------------------------
E|-----------------------------------------------------

e|----------------------------------------------------
B|----------------------------------------------------
G|----------------------------------------------------
D|--6-4-4--2-2--2-4-6-----6-4-4--2-2--2-4-6—6---------
A|----------------------------------------------------
E|----------------------------------------------------

California
California
Here we come
California!!!
California!
Here we come!!
California
California!
Here we come!!!
California
California
Here we come!!!

e|----7--9--7—9~~~~~----------------
B|--9-------------------------------
G|----------------------------------
D|----------------------------------
A|----------------------------------
E|----------------------------------
Comments