Phantom Planet - California Chords & Tabs

 

California Chords & Tabs

Phantom Planet Chords & Tabs

Version: 2 Type: Tab 0 ratings
1 star 2 stars 3 stars 4 stars 5 stars
comments

California Tab

   

For the few of you who might actually look at this I hope it's
satisfactory.  If anyone would like to add I would appreciate it
greatly; like the other guitar part on the bridge and second verse.
Plus other Phantom Planet tabs would be greatly appreciated.  Hoorah
Southern California.

     Intro
e ----------------------------------------------------|
b ----------------------------------------------------|
g -------7----7---------7----7---------7----7--9------|
d --7h10---10------7h10---10------7h10---10------10---|
a ----------------------------------------------------|
e ----------------------------------------------------|

e ----------------------------------------------------|
b ----------------------------------------------------|
g ------------------------------------------------7*--|
d --7------------------7----7------------------7------|
a ----10--10--8--8--10--------10--10--8--8--10--------|
e ----------------------------------------------------|

     Intro Chords
Dm    Bb  F

     Verse 1
Dm                                                         Bb      F
We've been on the run, driving in the sun, looking out for number one,

Bb                  F     Bb                          F
California here we come, right back where we started from.

Dm                                                               Bb  F
Hustlers grab your guns, your shadow weighs a ton, driving down the 101,

Bb                  F     Bb                          F
California here we come, right back where we started from.

     Chorus
Change from Bb to F on every 8th beat
Californiaaaaaaaaaaaaa

Here we comeeeeeeeeeee

     Verse 2
Dm                                               Bb      F
On the stereo, listen as we go, nothing's gonna stop me now,
[ Tab from: http://www.guitartabs.cc/tabs/p/phantom_planet/california_tab_ver_2.html ]
Bb                  F     Bb                          F
California here we come, right back where we started from.

Dm                                                    Bb      F
Pedal to the floor, thinking of the war, gotta get us to the show,

Bb                  F     Bb                          F
California here we come, right back where we started from.

     Chorus
Change from Bb to F on every 8th beat
Californiaaaaaaaaaaaaaa

Here we comeeeeeeeeeeee

California California

Here we come   oooohhhh

     Intro again, but end with this
e ---------------------------------------------------|
b ---------------------------------------------------|
g ---------------------------------------------------|
d --7---------------7----7---------------------------|
a ----10--10--8--8----------10--10--8--8--5--3-------|
e ---------------------------------------------------|

      Bridge
e -----1----1----1----1-----1----1----1----1---------|
b --1----1----1----1---------------------------------|
g ------------------------3----3----3----3-----------|
d ---------------------------------------------------|
a ---------------------------------------------------|
e ---------------------------------------------------|

e -----1----1----1----1------1----1----1----1--------|
b --1----1----1----1---------------------------------|
g ------------------------3----2----0----------------|
d ----------------------------------------3----------|
a ---------------------------------------------------|
e ---------------------------------------------------|
*repeat the above but omit the open g string and go right to the
f on the d-string so as to have complete silence for the chorus to
start again.

     Chorus
Change from Bb to F every 8th beat
Californiaaaaaaaaaaaaaaa

Here we comeeeeeeeeeeeee

     End on a Dm, piano does this:
e -----------------|
b -----------------|
g --------7-----7--|
d --7h10-----10----|
a -----------------|
e -----------------|
Comments