Phantom Planet - California Chords & Tabs

 

California Chords & Tabs

Phantom Planet Chords & Tabs

Version: 1 Type: Bass Tab 0 ratings
1 star 2 stars 3 stars 4 stars 5 stars
comments

California Bass Tab

   
Title: Phantom Planet
Artist: California
Album: The Guest

Instrument: 4 String Bass

Tabbed by: David (punkrockdude2@hotmail.com)

Tuning: Standard (E A D G)

This is a cool song!!

|----------------||
|----------------||
|=====Rest=6=====||
|----------------||

|----------------|----------------||
|----------------|----------------||
|----------7~----|----------------||
|---5~-----------|---5------7--0--||

|----------------||
|----------------||
|=====Rest=2=====||
|----------------||

|----------------|----------------||
|----------------|----------------||
|----------7-----|----------------||
|-5---5h7----7p5-|---5------7--0--||

|----------------|----------------|----------------|----------------||
|----------------|----------------|----------------|----------------||
|----------------|----------------|----------------|----------------||
|5-5-5-5-5-5-5-5-|0-0-0-0-0-0-0-0-|0-0-0-0-0-0-0-0-|0-0-0-0-0-0-0-0-||

|------------------|----------------|----------------|----------------||
|------------------|----------------|----------------|----------------||
|----------7-7-7-7-|-4~---------2---|-4~----------7--|---------7------||
|0-0-0-0-5---------|----------------|---------5------|-5---7-------4--||

|----------------|----------------|----------------|----------------||
|----------------|----------------|----------------|----------------||
|----------7--6--|-4~---------2---|-4~----------7--|---------7------||
|--5----7--------|----------------|---------5------|-5---7-------4--||

|----------------||
|----------------||
|-----------7----||
|--5-----7-----0-||

|----------------|----------------|----------------|----------------||
|----------------|----------------|----------------|----------------||
|----------------|----------------|----------------|----------------||
|5-5-5-5-5-5-5-5-|0-0-0-0-0-0-0-0-|0-0-0-0-0-0-0-0-|0-0-0-0-0-0-0-0-||

|------------------||
|------------------||
|----------7-7-7-7-||
|0-0-0-0-5---------||
[ Tab from: http://www.guitartabs.cc/tabs/p/phantom_planet/california_btab.html ]
|----------------|----------------|----------------|----------------||
|----------------|----------------|----------------|----------------||
|----------------|----------------|----------------|----------------||
|-0-0-0-0-0-0-0-0|-0-0-0-0-0-0-0-0|-0-0-0-0-0-0-0-0|-0-0-0-0-0-0-0-0||


|----------------|----------------||
|----------------|----------------||
|-------4--------|------Rest------||
|----------------|----------------||

|----------------|----------------||
|----------------|----------------||
|4---------------|4---------------||
|--5-5---5---0---|--5-5---5---7---||

|----------------|----------------|----------------|----------------||
|----------------|----------------|----------------|----------------||
|-4-----------4--|----------------|-------------7--|----------------||
|-------4--7-----|----5-----0-----|---5----7------4|---5------5-----||

|----------------|----------------|----------------|-------------------||
|----------------|----------------|----------------|-------------------||
|7---7---7--7--7-|7---7---7--7--7-|7---7---7--7--7-|7--7--7--9--7--4--2||
|----------------|----------------|----------------|-------------------||

|----------------|----------------|----------------|----------------||
|----------------|----------------|----------------|-7-7-7-7-7/Rest-||
|----------------|----------------|----------------|----------------||
|-0-0-0-0-0-0-0-0|-2-2-2-2-2-2-2-2|-5-5-5-5-5-5-5-5|----------------||

|----------------|----------------|----------------|----------------||
|----------------|----------------|----------------|----------------||
|----------------|----------------|----------------|----------------||
|-0-0-0-0-0-0-0-0|-0-0-0-0-0-0-0-0|-0-0-0-0-0-0-0-0|-0-0-0-0-0-0-0-0||

|----------------|----------------|----------------|----------------||
|----------------|----------------|----------------|----------------||
|----------------|----------------|----------------|----------------||
|-0-0-0-0-0-0-0-0|-0-0-0-0-0-0-0-0|-0-0-0-0-0-0-0-0|-0-0-0-0-0-0-0-0||

|----------------|----------------|----------------|----------------||
|----------------|----------------|----------------|----------------||
|----------------|----------------|----------------|-7-7-7-7-7-7-7-7||
|-0-0-0-0-0-0-0-0|-2-2-2-2-2-2-2-2|-5-5-5-5-5-5-5-5|----------------||

|----------------||
|----------------||
|-----4----------||
|----------------||
Comments