Phantom Planet - After Hours Chords & Tabs

 

After Hours Chords & Tabs

Phantom Planet Chords & Tabs

Version: 1 Type: Chords 0 ratings
1 star 2 stars 3 stars 4 stars 5 stars
comments

After Hours Chords

   
Band: Phantom Planet
Song: After Hours
Album: Phantom Planet
Tabbed By: Sea Napoleon

Opening

     A
e---X
B---2
G---2
D---2
A---0
E---X


Verse
[ Tab from: http://www.guitartabs.cc/tabs/p/phantom_planet/after_hours_crd.html ]
     E   F# A        E    F# E2
e---X---X---X--------X---X---X-|
B---0---X---X--------0---X---X-|
G---1---3---6--------1---3---9-|
D---2---4---7--------2---4---9-|
A---2---4---7--------2---4---7-|
E---0---2---5--------0---2---X-|

Pre Chorus

e---X---X---X---X-|
B---0---X---X---X-|
G---1---3---6---8-|
D---2---4---7---9-|
A---2---4---7---9-|
E---0---2---5---7-|

Chorus

e---X---X-|
B---X---X-|
G---9---8-|
D---9---9-|
A---7---9-|
E---X---7-|


These are the chords; listen to the song for strumming.  Its more of a guide than a tab, 
you'll get the idea...
Comments