Phantom Planet - 1st Things 1st Chords & Tabs

 

1st Things 1st Chords & Tabs

Phantom Planet Chords & Tabs

Version: 2 Type: Bass Tab 0 ratings
1 star 2 stars 3 stars 4 stars 5 stars
comments

1st Things 1st Bass Tab

phantom planet-1st things 1st 
I dont play the bass so i figured it out on the guitar

Intro and verses
g|------------------------------------------------|
d|------------------------------------5-----------|
a|--7-----------5----5-7-7-7--------------5--7-7--|
e|----0---3-5-5----7----------0-3-5-5---7---------|


[ Tab from: http://www.guitartabs.cc/tabs/p/phantom_planet/1st_things_1st_btab_ver_2.html ]
Chorus
g|------5------5--------------------4------4----------------|
d|--------------------5------5--------------------3------3--|
a|--3-3----3-3------------------2-2----2-2------------------|
e|----------------3-3----3-3------------------1-1----1-1----|

g|-----2------5------7------11/12--------12-12--------12-12--10---10--|
d|--------------------------------------------------------------------|
a|-0-3----0-3----5-5----5-9--------10-10--------10-10-----------8----8|
e|--------------------------------------------------------------------|
at the end go back to playing the intro part

Questions? comments! compu2thamax@aol.com
Comments