Phantom Planet - 1st Things 1st Chords & Tabs

 

1st Things 1st Chords & Tabs

Phantom Planet Chords & Tabs

Version: 1 Type: Bass Tab 0 ratings
1 star 2 stars 3 stars 4 stars 5 stars
comments

1st Things 1st Bass Tab

Artist: Phantom Planet
Song: 1st Things 1st
Written by: Mel

G|----------------------
D|------------0---0-2-2-  repeat lots 
A|-------0-0----2-------
E|-0-3-3----------------


[ Tab from: http://www.guitartabs.cc/tabs/p/phantom_planet/1st_things_1st_btab.html ]
G|---------------------------------------------------------------------
D|---------------------------------------------------------------------
A|-3-3-3-3-3-3-3-3-------------------2-2-2-2-2-2-2-2-------------------  
E|-----------------3-3-3-3-3-3-3-3--------------------1?-1-1-1-1-1-1-1-



G|----------------------------------------------------10-10--10-10-
D|-----------------------------------9-9-9-9-9-9-9-9---------------
A|-0-0-0-0-0-0-0-0--5-5-5-5-5-5-5-5--------------------------------
E|-----------------------------------------------------------------


  go back to beginning

 
 enjoy -:c)  its not totally correct but its the basic stuff
Comments