Phair Liz - Why Cant I Chords & Tabs

 

Why Cant I Chords & Tabs

Phair Liz Chords & Tabs

Version: 1 Type: Tab 0 ratings
1 star 2 stars 3 stars 4 stars 5 stars
comments

Why Cant I Tab

Artist: Liz Phair
Title: Why Can't I
Album: Liz Phair
Transcribed by: Wesley Thrailkill
Email: westhrail@cox.net
[ Tab from: http://www.guitartabs.cc/tabs/p/phair_liz/why_cant_i_tab.html ]
Chorus:
-------------------------------------------------------
-------------------------------------------------------
-------------------------------4---4---4---------------
---6---6---6-----2---2---2-----4---4---4---4---4---4---
---6---6---6-----2---2---2-----2---2---2---4---4---4---
---4---4---4-----0---0---0-----------------2---2---2---

Clean Part:
----------------------------------------------------------------
----------------------------------------------------------------
-------------------9---9---9---9---4---4---4---4--11--11--11--11
---6---6---6---6---9---9---9---9---4---4---4---4--11--11--11--11
---6---6---6---6---7---7---7---7---2---2---2---2---9---9---9---9
---4---4---4---4------------------------------------------------
Comments