Phair Liz - Mesmerizing Chords & Tabs

 

Mesmerizing Chords & Tabs

Phair Liz Chords & Tabs

Version: 1 Type: Chords 0 ratings
1 star 2 stars 3 stars 4 stars 5 stars
comments

Mesmerizing Chords

   
--------------------------------------
'MESMERIZING' by Liz Phair

Album: Exile In Guyville
From: Steve Wakeley 
Tuning: Standard

This one is played with bar chords
  


Chords:
---------------
G    355433
Bb   688766
F    133211
C    335553
Ab   466544
Ab/A 566544
D7   557575
---------------

[INTRO]

 G  Bb   F   Bb  G  C  (2x) 

 G  Bb   F   Ab  Ab/A

 (G   C)  (2x) 


[VERSE]
 
 [BRIDGE]

 C              G        C  
  With all of...                 
 C              G        C
  Wild and...

 
[SOLO]
[ Tab from: http://www.guitartabs.cc/tabs/p/phair_liz/mesmerizing_crd.html ]
E--------------------------------------------------------------------------
B--------------------------------------------------------------------------
G-17b-17b-17b--15-15h17-17-17-17-15----------------------------------------
D------------------------------------17-15-15h17-17-17-17-15-17-17-17-17-17
A--------------------------------------------------------------------------
E--------------------------------------------------------------------------
  

 Play this with solo:
 
 G   Bb  F  Bb  C (2x)
 
 G   Bb  F  C   D   (to bridge)
                   
                      to [SOLO]
                        

 Play this after 2nd solo:
 
 C   G     (3x)   C
                     
                      
                      to [SOLO]
 

[END RIFF]
 
E-----------------------------------------------------------------------
B-----------------------------------------------------------------------
G-15------------15----------------------15-15---------------15-15-------    
D----17-17--17----17-17---17-17~-17-17-------h17-17~-17-17-------h17-17~
A-----------------------------------------------------------------------
E-----------------------------------------------------------------------



Comments