Phair Liz - Extraordinary Chords & Tabs

 

Extraordinary Chords & Tabs

Phair Liz Chords & Tabs

Version: 2 Type: Tab 0 ratings
1 star 2 stars 3 stars 4 stars 5 stars
comments

Extraordinary Tab

   
			    Extraordinary - Liz Phair
-------------------------------------------------------------------------------
Tabbed by: oriolesazb 


Tuning: Standard

Intro-use a tremelo effect at the very beginning while strumming this first chord...
then use heavey distortion throughtout the rest.

e|---|------------------------------------------------|
B|---|------------------------------------------------|
G|---|-------------2-2-2-2-2-2-------------2-2-2-2-2-2|
D|-2-|-3-3-2-2-2-2-2-2-2-2-2-2-3-3-2-2-2-2-2-2-2-2-2-2|
A|-2-|-3-3-2-2-2-2-0-0-0-0-0-0-3-3-2-2-2-2-0-0-0-0-0-0|
E|-0-|-1-1-0-0-0-0-------------1-1-0-0-0-0------------|

Verse-no guitar is played during the verse, but this sounds good.
Repeat this part as needed...or if u feel like it lol.

e|------------------------|
B|------------------------|
G|-------------2-2-2-2-2-2|
D|-2-2-2-2-2-2-2-2-2-2-2-2|
A|-2-2-2-2-2-2-0-0-0-0-0-0|
E|-0-0-0-0-0-0------------|

Pre Chorus
[ Tab from: http://www.guitartabs.cc/tabs/p/phair_liz/extraordinary_tab_ver_2.html ]
e|--------------------------------|
B|--------------------------------|
G|-----------------2-2-2-2-2-2-2-2|
D|-4-4-4-4-4-4-4-4-2-2-2-2-2-2-2-2|
A|-4-4-4-4-4-4-4-4-0-0-0-0-0-0-0-0|
E|-2-2-2-2-2-2-2-2----------------|

Chorus

e|------------------------|
B|------------------------|
G|-6-----------------4----|
D|-6(8x)-7-----4-----4(8x)|
A|-4-----7(8x)-4(8x)-2----|
E|-------5-----2----------|

Bridge
       this part twice
e|------------------------|-------------|
B|------------------------|-------------|
G|-------2-----------7----|-5-----4-----|
D|-4-----2(8x)-2-----7(8x)|-5(6x)-4(16x)|
A|-4(8x)-0-----2(8x)-5----|-3-----2-----|
E|-2-----------0----------|-------------|

Thats it heres the order

intro
verse
pre-chorus
verse
pre-chorus
chorus
intro 
verse
pre-chorus
chorus
bridge
chorus

| /  slide up
| \  slide down
| h  hammer-on
| p  pull-off
| ~  vibrato
| +  harmonic
| x  Mute note
===============================================================================
Comments