Phair Liz - Extraordinary Chords & Tabs

 

Extraordinary Chords & Tabs

Phair Liz Chords & Tabs

Version: 1 Type: Tab 0 ratings
1 star 2 stars 3 stars 4 stars 5 stars
comments

Extraordinary Tab

   
Extraordinary
Liz Phair
Tabbed by: The Brent
Anything to: bjtdevera@yahoo.com

Standard tuning

Intro

e-----------------------------------------------------------
B-----------------------------------------------------------
G----------------------------------------------------------
D-3-2---2-2-2---7-7-7--7-7-7---3-3-2---2-2-2---7-7-7--7-7-7-
A-3-2---2-2-2---7-7-7--7-7-7---3-3-2---2-2-2---7-7-7--7-7-7-
E-1-------------5-5-5--5-5-5---1-1-------------5-5-5--5-5-5-

Verse

You think that I go home at night
Take off my clothes, turn out the lights
But I burn letters that I write

e-----------------------------------------------------------
B-----------------------------------------------------------
G----------------------------------------------------------
D-----4-4-4-4-4-4-4-7-7-7-7-7-7-7-7-7-----------------------
A-----4-4-4-4-4-4-4-7-7-7-7-7-7-7-7-7-----------------------
E-----2-2-2-2-2-2-2-5-5-5-5-5-5-5-5-5-----------------------

To you, to make you love me


Yeah, I drive naked through the park
And run the stop sign in the dark
Stand in the street, yell out my heart

e-----------------------------------------------------------
B-----------------------------------------------------------
G----------------------------------------------------------
D-----4-4-4-4-4-4-4-7-7-7-7-7-7-7-7-7-----------------------
A-----4-4-4-4-4-4-4-7-7-7-7-7-7-7-7-7-----------------------
E-----2-2-2-2-2-2-2-5-5-5-5-5-5-5-5-5-----------------------

To make, to make you love me


CHORUS
[ Tab from: http://www.guitartabs.cc/tabs/p/phair_liz/extraordinary_tab.html ]
e-----------------------------------------------------------------
B-----------------------------------------------------------------
G-6-6-6-6-6-6-6-6--------------------------------4-4-4-4-4-4-4-4-
D-6-6-6-6-6-6-6-6-7-7-7-7-7-7-7-7-4-4-4-4-4-4-4-4-4-4-4-4-4-4-4-4-
A-4-4-4-4-4-4-4-4-7-7-7-7-7-7-7-7-4-4-4-4-4-4-4-4-2-2-2-2-2-2-2-2-
E-----------------5-5-5-5-5-5-5-5-2-2-2-2-2-2-2-2-----------------

I     am     extraordinary,       if you'd ever get to know me
I     am     extraordinary,       I am just your ordinary


e-----------------------------------------------------------
B-----------------------------------------------------------
G----------------------------------------------------------
D-3-2---2-2-2---7-7-7--7-7-7---3-3-2---2-2-2---7-7-7--7-7-7-
A-3-2---2-2-2---7-7-7--7-7-7---3-3-2---2-2-2---7-7-7--7-7-7-
E-1-------------5-5-5--5-5-5---1-1-------------5-5-5--5-5-5-

Average every day sane psycho; Supergoddess; average every day sane psycho



e-------------------------------------------------2-2-2-2-2-2-2-2---
B-------------------------------------------------3-3-3-3-3-3-3-3---
G------------------------------------------------2-2-2-2-2-2-2-2---
D-4-4-4-4-4-4-4-4-7-7-7-7-7-7-7-7-2-2-2-2-2-2-2-2-------------------
A-4-4-4-4-4-4-4-4-7-7-7-7-7-7-7-7-2-2-2-2-2-2-2-2-------------------
E-2-2-2-2-2-2-2-2-5-5-5-5-5-5-5-5----------------------------------

See me jump through hoops for you.  You stand there watching me performing
What exactly do you do?  Have you ever thought it's you that's boring?


e-----------------------------------------------------
B-----------------------------------------------------
G----------------------------------------------------
D-7-7-7-7-7-7-7-7-9-9-9-9-9-9-9-9-9-9-9-9-9-9-9-9-----
A-7-7-7-7-7-7-7-7-9-9-9-9-9-9-9-9-9-9-9-9-9-9-9-9-----
E-5-5-5-5-5-5-5-5-7-7-7-7-7-7-7-7-7-7-7-7-7-7-77-----

Who the hell are you?
Comments