Ph8 - Keep On Doggin Chords & Tabs

 

Keep On Doggin Chords & Tabs

Ph8 Chords & Tabs

Version: 2 Type: Tab 0 ratings
1 star 2 stars 3 stars 4 stars 5 stars
comments

Keep On Doggin Tab

#----------------------------------PLEASE NOTE--------------------------------#
#This file is the author\'s own work and represents their interpretation of the#
#song. You may only use this file for private study, scholarship, or research.#
#-----------------------------------------------------------------------------#
#-- File created with Instab - http://www.pconline.com/~smcarey/instab.html --#
#-----------------------------------------------------------------------------#

Author/Artist: Ph8
Title: Keep On Doggin\'
Album: Preliminary Hearing
Transcribed by: Nando
Email: nando@azstarnet.com

The harmonics I do on the A string, I switch postion of my thumb so different
pitches are made...
Now these are the basic riffs that \"I\" play. There are 2 other guitarists that
do similar but different in some ways.
[ Tab from: http://www.guitartabs.cc/tabs/p/ph8/keep_on_doggin_tab_ver_2.html ]
-------------------|-------------------------|-------------------|------------|
-------------------|-------------------------|-------------------|------------|
-------------------|-------------------------|-------------------|------------|
------2------------|-----2-2h3h2-------------|-------------------|------------|
---------------2-2-|-2-3---------3---2-2h3-2-|------2--------2-2-|------------|
-0-00---0-00-0-----|-------------------------|-0-00---0-00-0-----|------------|
 x xx ^ x xx x ^ ^                             x xx   x xx x

----------------------|--------------------|----------------------------------|
----------------------|--------------------|----------------------------------|
----------------------|--------------------|----------------------------------|
----------------------|--------------------|----------------------------------|
----2-----3-------1h3-|----2-----3-------1-|----------------------------------|
-3-3--01-1--1-1h3-----|-3-3--01-1--1-1h3---|----------------------------------|
 x x  xx x  x           x x  xx x  x

------------------------------|-----------------------------------------------|
------------------------------|-----------------------------------------------|
------------------------------|---------4-------------------------------------|
---------2--------------------|---------2-----4--5--------4-------------------|
---------------2---2-----2--2-|---------------2--3--------4-------------------|
-0-0-0-0---0-0---0---0-0------|-0-000-0---0-0-2--3--0-0-002-------------------|
         ^     ^   ^     ^  ^   x xxx x   x x       x x xx
Comments