Pfr - Pour Me Out Chords & Tabs

 

Pour Me Out Chords & Tabs

Pfr Chords & Tabs

Version: 2 Type: Bass Tab 0 ratings
1 star 2 stars 3 stars 4 stars 5 stars
comments

Pour Me Out Bass Tab

   
"Pour Me Out"
by PfR
Original song (c) 1996 Sparrow Song/ Winning Pitch Music (BMI)/ Adm. by BMI Christian Music Pub.
Toonman (bass4jesus@aol.com)

Intro:
D-0---2-----------------------0-|
A-----------------0-------2-----|
E---------4---------------------|

Verse:
D                                                             |
A-----------------------------------------------0-0---0-------|
E-0---0-------0-0---0-------0-2-3---3-------3-------------3-2-|
[ Tab from: http://www.guitartabs.cc/tabs/p/pfr/pour_me_out_btab_ver_2.html ]
                                                            2x
D------------------------------------------------------0---2-|
A----------------------------2---2---2---2---3-3---3---------|
E-0---0-------0-0---0------0---------------------------------|

Bridge:                                          2x
D-0-0-0-0-0-0-0-0-----------------|----------------|<--only play last
A-----------------3-3-3-3-2-2-2-2-|0-0-0-0-0-0-0-0-|   section first time

Repeat Verse
Repeat Bridge

Instrumental 1:                   4x
E-0---0---0---0-0--3-3-3-3-3-3-3-3-|

Instrumental 2:
D---------0---------------0--------|
A---2-0-----2-0-----3---0---2-0----|
E-0-----3-------3-2--------------3-|

Repeat Verse
Repeat Instrumental 1

Outro:                         8x
D-2-------------0-----0---0---0-|-2---------0---|
A-------0---2-------2---2---2---|               |
E---4---------------------------|---4---------2-|





Comments