Pflasterstein - Our Village Chords & Tabs

 

Our Village Chords & Tabs

Pflasterstein Chords & Tabs

Version: 3 Type: Tab 0 ratings
1 star 2 stars 3 stars 4 stars 5 stars
comments

Our Village Tab

   
Artist: PFLASTERSTEIN
Title: Our village
Words: Christoph D?ll
Transcribed by: Nils Ritter
Email: nils.ritter@freenet.de


       x        = Abged?mpfte Strings	       	p        = pull-off
       \        = slide down guitar  	       	/	 = slide up guitar
       h        = hammer-on 			~~~~~    = Tremolo


INTRO
*****

e -----------------------------------------------------3-------------------|
h --------5-----------------------------3-----------5-----5----------------|
G -----7-----7-----------5-----------5-----5-----5-----------5-------------|
D --/7----------7-----7-----7-----5-----------5-----------------3p---------|
A -----------------7-----------7-----------------------------------h3\-----|
E --------------------------------------------------------------------h3\--|

1. VERSE
********

D	 E	    C		C7
I wanna fly in the sky like a bird
D	     E	  C	     C7
You know I wanna big fly to you
D	    E	   C		     C7
Where ever you are I want to fly to you
D 	   E 	      C 	 C7
'Cause I promise you that we together

BRIGDE
******

Am 	G 	  F
Please don't go away
Am    G 	    F
You know that we together

REFRAIN
*******

Hm      A 	G       \  Diesen Teil
'Cause I need you       /  drei mal spielen

F	C		    \
I miss you		     \	Diesen Teil
F 	C 	     G#	     /	zwei mal spielen
I miss you all the times    /

SOLO
****
[ Tab from: http://www.guitartabs.cc/tabs/p/pflasterstein/our_village_tab_ver_3.html ]
Solo spielt unser Gitarrist Christoph und Nils an der
Mundharmonika. Christoph spielt die Akkorde vom 1. Verse,
dann von der Brigde und letztendlich auch vom Refrain.
Dazu improvisiert Nils an der Mundharmonika. Unsere
S?ngerin Jenny singt evtl. dazu eine sehr hohe Stimme.

2. VERSE
********

D	     E		        C	 C7
Now I can't keep this feeling inside of me
D	E	      C		    C7
And sometimes I fly over our village
D	     E			C	    C7
There is a wonderful cloud to see every times
D	   E		    C		      C7
I can't belive behind the cloud a girl like you

BRIGDE
******

Am 	G 	  F
Please don't go away
Am    G 	    F
You know that we together

REFRAIN
*******

Hm      A 	G       \  Diesen Teil
'Cause I need you       /  drei mal spielen

F	C		    \
I miss you		     \	Diesen Teil
F 	C 	     G#	     /	zwei mal spielen
I miss you all the times    /

OUTRO
*****

e --10---9---6---4---3---2------------------------------|
h --x----x---x---x---x---x------------------------------|
G --x----x---x---x---x---x---1-~~~~~~~~~~~~~~~----------|
D --x----x---x---x---x---x---2-~~~~~~~~~~~~~~~----------|
A --9----8---5---3---2---1---2-~~~~~~~~~~~~~~~----------|
E --10---9---6---4---3---2------------------------------|


Have a lot of fun with our first song,
please visit our homepages:

http://www.sonic-23.de
http://www.flaesch.org/

bye for now,
Nils
Comments