Pflasterstein - Jesus Chords & Tabs

 

Jesus Chords & Tabs

Pflasterstein Chords & Tabs

Version: 3 Type: Tab 0 ratings
1 star 2 stars 3 stars 4 stars 5 stars
comments

Jesus Tab

   
Artist: PFLASTERSTEIN
Title: Jesus
Words: Nils Ritter
Transcribed by: Nils Ritter
Email: nils.ritter@freenet.de

         h        = hammer-on

	~~~~~     = Tremolo

INTRO
*****

e ----3---3---3---h3--------------------------------|
h --------------------3---3---3---h3-~~~~~~~~~~~~~~-|
G --------------------------------------------------|
D --5---5---5---5-----------------------------------|
A ------------------5---5---5---5-------------------|
E --------------------------------------------------|
[ Tab from: http://www.guitartabs.cc/tabs/p/pflasterstein/jesus_tab_ver_3.html ]
e ----1---1---1---h1--------------------------------|
h --------------------1---1---1---h1-~~~~~~~~~~~~~~-|
G --------------------------------------------------|
D --3---3---3---3-----------------------------------|
A ------------------3---3---3---3-------------------|
E --------------------------------------------------|

1. VERSE
********

Cm  	G  		Bm 	 F
All the members in the church i know
Says you are very important for us
That is ok but were where you are
When start in Ahfgahnistan the new war

REFRAIN (5x)
************

A      E
Jesus are with us?
C	 D
We are alone!

2. VERSE
********

Cm  	G  	     Bm      F
I stand here everything is ok
No problems and nothing has changed
Religion is one of the reason
Why so many people had to die

REFRAIN (5x)
************

A      E
Jesus are with us?
C	 D
We are alone!

SOLO
****

Played by Christoph Jimi D.

...........................
http://www.sonic-23.de
http://www.flaesch.org/
Comments