Petty Tom - Zombie Zoo Chords & Tabs

 

Zombie Zoo Chords & Tabs

Petty Tom Chords & Tabs

Version: 1 Type: Tab 0 ratings
1 star 2 stars 3 stars 4 stars 5 stars
comments

Zombie Zoo Tab

Intro
|------------5------------1-------------|------------5------------1------------|-----------5-----------1------------|
|------------5------------1-------------|------------5------------1------------|-----------5-----------1------------|
|------------6------------2-------------|------------6------------2------------|-----------6-----------2------------|
|------------7------------3-------------|------------7------------3------------|-----------7-----------3------------|
|------------7------------3-------------|------------7------------3------------|-----------7-----------3------------|
|------------5------------1-------------|------------5------------1------------|-----------5-----------1------------|

  Verse:
|---5--------------5--------------5-------|----------------------------------------|-7--------------7--------------7------|
|---5--------------5--------------5-------|----------------------------------------|-7--------------7--------------7------|
|-o-6--------------6--------------6-------|--1----x----x----1----x----x----1---x---|-8--------------8--------------8------|
|o--7----x----x----7----x----x----7----x--|--2----x----x----2----x----x----2---x---|-9----x----x----9----x----x----9----x-|
|---7----x----x----7----x----x----7----x--|--2----x----x----2----x----x----2---x---|-9----x----x----9----x----x----9----x-|
|---5----x----x----5----x----x----5----x--|----------------------------------------|-7----x----x----7----x----x----7----x-|

[ Tab from: http://www.guitartabs.cc/tabs/p/petty_tom/zombie_zoo_tab.html ]
|-----------------------------------------|--5--------------5--------------5-------|--------------------------------------|
|-----------------------------------------|--5--------------5--------------5-------|--------------------------------------|
|---1----x----x----1----x----x----1----x--|--6--------------6--------------6-------|-1----x----x----1----x----x----1----x-|
|---2----x----x----2----x----x----2----x--|--7----x----x----7----x----x----7---x---|-2----x----x----2----x----x----2----x-|
|---2----x----x----2----x----x----2----x--|--7----x----x----7----x----x----7---x---|-2----x----x----2----x----x----2----x-|
|-----------------------------------------|--5----x----x----5----x----x----5---x---|--------------------------------------|

                                            Bridge:                                  Coruse:
|---7--------------7--------------7-------|--2----x----x----2----x----x----2---x---|-5----5----5--------------------------|
|---7--------------7--------------7-------|--3----x----x----3----x----x----3---x---|-5----5----5--------------------------|
|---8--------------8--------------8-------|--2----x----x----2----x----x----2---x---|-6----6----6---------7----7----9----9-|
|---9----x----x----9----x----x----9----x--|--0--------------0--------------0-------|-7----7----7----x----7----7----9----9-|
|---9----x----x----9----x----x----9----x--|----------------------------------------|-7----7----7----x----5----5----7----7-|
|---7----x----x----7----x----x----7----x--|----------------------------------------|-5----5----5----x---------------------|


|---------------------------------5----5--|--5-------------------------------------|-5----5----5--------------------------|
|---------------------------------5----5--|--5-------------------------------------|-5----5----5--------------------------|
|---9----9----7----7----6----4----6----6--|--6---------7----7----9----9----9---9---|-6----6----6---------7----7----9----9-|
|---9----9----7----7----6----4----7----7--|--7----x----7----7----9----9----9---9---|-7----7----7----x----7----7----9----9-|
|---7----7----5----5----4----2----7----7--|--7----x----5----5----7----7----7---7---|-7----7----7----x----5----5----7----7-|
|---------------------------------5----5--|--5----x--------------------------------|-5----5----5----x---------------------|


|---------------------------------5----5--|--5-------------------------------------|-5---------|
|---------------------------------5----5--|--5-------------------------------------|-5---------|
|---9----9----7----7----6----4----6----6--|--6---------7----7----9----7----7---7---|-6----o----|Repeat Throughout Song
|---9----9----7----7----6----4----7----7--|--7----x----7----7----9----7----7---7---|-7----o----|
|---7----7----5----5----4----2----7----7--|--7----x----5----5----7----5----5---5---|-7---------|
|---------------------------------5----5--|--5----x--------------------------------|-5---------|
Comments