Petty Tom - Into The Great Wide Open Chords & Tabs

 

Into The Great Wide Open Chords & Tabs

Petty Tom Chords & Tabs

Version: 1 Type: Bass Tab 0 ratings
1 star 2 stars 3 stars 4 stars 5 stars
comments

Into The Great Wide Open Bass Tab

   
----------------------------------PLEASE NOTE---------------------------------#
#This file is the author's own work and represents their interpretation of the #
#song. You may only use this file for private study, scholarship, or research. #
#------------------------------------------------------------------------------##
Sender: mes3sl@mech.surrey.ac.uk (Shaun Lawson)

Here's a slightly more tricky TP song - any suggestions or corrections
are most welcome. Anyway here comes my version of ...

INTO THE GREAT WIDE OPEN by TOM PETTY from the album of same name
=================================================================
 
The intro and first few bars of the verse seem to be the following:
 
    Em  Em? Em7 Em6
 
e---0-----------------
b---0-----------------          The chord names are probably a bit 
g---0-----------------                dodgy but - hey. If you play this 
d---2----1---0--------                on an acoustic 12 string (like TP's 
a---2----2---2---4----                nice Martin one ...) it sounds ok.
e---0----0---0---0----
 
==============================================================================================
Bass Tab:

Tabbed By Jono on the 18th Of Sept 2000

Regular Timing (4/4) and Tuning (EADG)


Intro

|--------------------------------|
|--------------------------------|
|--------------------------------|
|0---0---0---0---0---0---0---0---|   x4

Verse

|--------------------------------|
|--------------------------------|
|--------------------------------|
|0---0---0---0---0---0---0---0---|   x4


|--------------------------------|
|--------------------------------|
|0---0---0---0-------------------|
|----------------3---3---3---3---|

|--------------------------------|
|--------------------------------|
|--------------------------------|
|2---2---2---2---3---3---3---3---|

|0---0---0---0-------------------|
|----------------3---3---3---3---|
|--------------------------------|
|--------------------------------|

|--------------------------------|
|--------------------------------|
|3---3---3---3---3---3---3---3---|
|--------------------------------|

Bridge

|--------------------------------|
|--------------------------------|
|----------3---------------------|
|------3-3---3-3-3---------------|   

Repeat The Verse and Bridge

Then The Chorus


[ Tab from: http://www.guitartabs.cc/tabs/p/petty_tom/into_the_great_wide_open_btab.html ]
|--------------------------------|  
|-----------------0----0--0--0---|            
|----------3---------------------|
|------3-3---3-3-----------------|   

Beginning Of Part 1

|--------------------------------|
|--------------------------------|
|----------------3---3---3---3---|
|3---3---3---3-------------------|   

|--------------------------------|
|0---0---0---0---0---0---0---0---|
|--------------------------------|
|--------------------------------|   

End Of Part 1

|--------------------------------|
|--------------------------------|
|----------------2---2---2---2---|
|3---3---3---3-------------------|   

|--------------------------------|
|0---0---0---0-------------------|
|----------------0---0---0---0---|
|--------------------------------|   


Play Part 1 Again Followed By:

|--------------------------------|
|--------------------------------|
|--------------------------------|
|3---3---3---3---1---1---1---1---|

Then:

|--------------------------------|
|--------------------------------|
|--------0---0---0---------------|
|0---0---------------------------|   

Then Play The Bridge x2


Solo:

|--------------------------------|
|2---2---2---2---1---1---1---1---|
|--------------------------------|
|--------------------------------|   

|--------------------------------|
|0---0---0---0-------------------|
|----------------4---4---4---4---|
|--------------------------------|   

|--------------------------------|
|--------------------------------|
|--------------------------------|
|0---0---0---0---2---2---2---2---|   

|--------------------------------|
|--------------------------------|
|----------------0---0---0---0---|
|3---3---3---3-------------------|

Then Verse And Bridge

Last Verse: (His Leather Jacket had Chains....)


|--------------------------------|
|--------------------------------|
|--------------------------------|
|0---0---0---0---0---0---0---0---|   x4

|--------------------------------|
|--------------------------------|
|--------------------------------|
|2---2---2---2---3---3---3---3---|   

|--------------------------------|
|--------------------------------|
|0---0---0---0---3---3---3---3---|
|--------------------------------|   

|0---0---0---0-------------------|
|----------------3---3---3---3---|
|--------------------------------|
|--------------------------------|

|--------------------------------|
|--------------------------------|
|3---3---3---3---3---3---3---3---|
|--------------------------------|

Bridge Then

Chorus x2

Finish Off With Bridge x2

That's It

E-mail any requests suggestions or corrections to jcoote@ireland.com
Comments