Petty Tom - I Wont Back Down Chords & Tabs

 

I Wont Back Down Chords & Tabs

Petty Tom Chords & Tabs

Version: 1 Type: Chords 1 rating
1 star 2 stars 3 stars 4 stars 5 stars
comments

I Wont Back Down Chords

#----------------------------------PLEASE NOTE---------------------------------#
#This file is the author's own work and represents their interpretation of the #
#song. You may only use this file for private study, scholarship, or research. #
#------------------------------------------------------------------------------#

Tom Petty - I won't back down
by: tom petty
Written by: tom Petty and Jeff Lynne

this is the power chord version that i see tom and mike play, but 
the chorus goesinto real chords, i dont know the solo though.
[ Tab from: http://www.guitartabs.cc/tabs/p/petty_tom/i_wont_back_down_crd.html ]
|------------------------------------|
|------------------------------------|
|--9-9-9-9--7-7-7-7------------------|
|--9-9-9-9--7-7-7-7--5-5-5-5-5-5-5-5-|
|--7-7-7-7--5-5-5-5--5-5-5-5-5-5-5-5-|
|--------------------3-3-3-3-3-3-3-3-| 2x

|------------------------------------|
|------------------------------------|
|--9-9-9-9--7-7-7-7--5-5-5-5-5-5-5-5-|
|--9-9-9-9--7-7-7-7--5-5-5-5-5-5-5-5-|
|--7-7-7-7--5-5-5-5--3-3-3-3-3-3-3-3-|
|------------------------------------| 1x

|------------------------------------|
|------------------------------------|
|--9-9-9-9--7-7-7-7------------------|
|--9-9-9-9--7-7-7-7--5-5-5-5-5-5-5-5-|
|--7-7-7-7--5-5-5-5--5-5-5-5-5-5-5-5-|
|--------------------3-3-3-3-3-3-3-3-|
Comments