Petty Tom - Dont Come Around Here No More Chords & Tabs

 

Dont Come Around Here No More Chords & Tabs

Petty Tom Chords & Tabs

Version: 1 Type: Bass Tab 0 ratings
1 star 2 stars 3 stars 4 stars 5 stars
comments

Dont Come Around Here No More Bass Tab

TOM PETTY & THE HEARTBREAKERS - "Don't Come Around Here No More" - Bass Tab

Common Time(4/4)
Standard Tuning(EADG)


INTRO:
       (x16)                                      (x4)
|-----------|----------|---------|---------|----------|
|*---------*|*---------|---------|---------|---------*|
|*-r-e-s-t-*|*---------|-1-----r-|-3-----r-|-1-----r-*|
|-----------|--1-----r-|---------|---------|----------|
   1 2 3 4     1 2 3 4   1 2 3 4   1 2 3 4   1 2 3 4


VERSE 1:
|----------|---------|---------|----------|
|*---------|---------|---------|---------*|
|*---------|-1-----r-|-3-----r-|-1-----r-*| (x4)
|--1-----r-|---------|---------|----------|
   1 2 3 4   1 2 3 4   1 2 3 4   1 2 3 4


CHORUS:
                                      (x3)
|----------|---------|---------|----------|
|*---------|---------|---------|---------*|
|*-3-------|---------|-0-------|---------*|
|----------|---------|---------|----------|
   1 2 3 4   1 2 3 4   1 2 3 4   1 2 3 4
[ Tab from: http://www.guitartabs.cc/tabs/p/petty_tom/dont_come_around_here_no_more_btab.html ]
|---------|---------|---------|----------|
|---------|---------|---------|-----1---*|
|-3-------|---------|-0---1---|-3-------*|
|---------|---------|---------|----------|
  1 2 3 4   1 2 3 4   1 2 3 4   1 2 3 4


VERSE 2:
|----------|---------|---------|----------|
|*---------|---------|---------|---------*|
|*---------|-1-----r-|-3-----r-|-1-----r-*| (x8)
|--1-----r-|---------|---------|----------|
   1 2 3 4   1 2 3 4   1 2 3 4   1 2 3 4


BIT AFTER 2ND CHORUS:
                  (x4)
|----------|----------|
|*---------|---------*|
|*---------|---------*|
|--1-----r-|-r-e-s-t--|
   1 2 3 4   1 2 3 4


END:
|------------------|-----------------|-----------------|
|*-----------------|-----------------|-----------------|
|*-----------------|-1-1-1-1-1-1-1-1-|-3-3-3-3-3-3-3-3-|
|--1-1-1-1-1-1-1-1-|-----------------|-----------------|
   1 & 2 & 3 & 4 &   1 & 2 & 3 & 4 &   1 & 2 & 3 & 4 &

|------------------|
|-----------------*|
|-1-1-1-1-1-1-1-1-*| (x10 to fade-out)
|------------------|
  1 & 2 & 3 & 4 &


By: Johari Taylor
E-mail: viking@powerup.com.au, or s369700@student.uq.edu.au
More Bass Tabs: http://www.powerup.com.au/~viking/basstab.htm

Comments