Peterpan - Tak Bisakah Chords & Tabs

 

Tak Bisakah Chords & Tabs

Peterpan Chords & Tabs

Version: 2 Type: Tab

Tak Bisakah Tab

   
Edited by: haikal
email    : haikal4eva@yahoo.com
Previous tab by: Gilank_djaloe
Email	: gilangjalu@plasa.com

DROP D

Intro: Em A C D 2X

how to play :
e ------------------------------------------------------------------|
B ------------------------------------------------------------------|
G ----------------------------------5-----5-----5-------------------|
D --2-----2-----2---7-----7-----7---5-----5-----5---0-----0-----0---|
A --2-----2-----2---7-----7-----7---3-3-3-3-3-3-3-3-0-----0-----0---|
E --2-2-2-2-2-2-2-2-7-7-7-7-7-7-7-7---'-'---'-'---'-0-0-0-0-0-0-0-0-|
     ' '   ' '   '   ' '   ' '   '                    ' '   ' '   '
         Em              A5               C5              D5

 (P.M = ')

        Em                  A
hatiku bimbang namun tetap pikirkanmu
    C                D
Selalu slalu dalam hatiku
       Em             A
kumelangkah sejauh apapun itu
    C                D
Selalu kau didalam hatiku


Bass And guitar play:
   Em     A       C        D
AaaaAa...AaaAa.. AAaa.... AaaaAa

Solo while singing:
e-------------------------------------|
B-------------------------------------|
G-------------------------------------|
D-[-2-2-2-0--0-2-0-](3x)--2s4-4h5-2---|
A-------------------------------------|
E-------------------------------------|

s= slide
h= hammer on

        Em                A
ku berjalan berjalan memutar waktu
     C                 D
Berharap temukan sisa hatimu
        Em               A
mengertilah kuingin engkau begitu
     C                  D
Mengerti kau didalam hatiku
[ Tab from: http://www.guitartabs.cc/tabs/p/peterpan/tak_bisakah_tab_ver_2.html ]
REFF:
         G             D
tak bisakah kau menungguku
       Em                D
hingga nanti tetap menunggu
         G             D
tak bisakah kau menuntunku
     Em             D
menemani dalam hidupku

Solo:

e----------------------------------------------------------------|
B--10s12-12-8--7--5(several times)-3s5-5-3---5s7-7-5-3-----------|
G----------------------------------------------------------------|
D----------------------------------------------------------------|
A----------------------------------------------------------------|
E----------------------------------------------------------------|
cont..
----------12--10---------------------------------------------------------|
-10s12-12--------12(several times)---10s12-12-8(several times)---7h8-8---|
-----------------------------------------------------------------------7-|
-------------------------------------------------------------------------|
-------------------------------------------------------------------------|
-------------------------------------------------------------------------|

        Em                A
ku berjalan berjalan memutar waktu
     C                  D
Berharap temukan sisa hatimu
        Em               A
mengertilah kuingin engkau begitu
     C                  D
mengerti kau didalam hatiku

REFF

Outro:

 Em
OooOOooooooooooO
        A             E5
tak bisakah kau menungguku
        F#              Em
hingga nanti tetap menunggu
         A             E5
tak bisakah kau menuntunku
     F#             Em
menemani dalam hidupku..woop

A E5 F# Em


Enjoy!