Peterpan - Mungkin Nanti Chords & Tabs

 

Mungkin Nanti Chords & Tabs

Peterpan Chords & Tabs

Version: 1 Type: Tab 0 ratings
1 star 2 stars 3 stars 4 stars 5 stars
comments

Mungkin Nanti Tab

   
Peterpan - Mungkin nanti (Interlude)
Tabbed by AchonX
Feb, 21th 05
to my best friend ever : Yoerie

This tab is the 2nd interlude, the 1st one is simpler but base on this tab also
[ Tab from: http://www.guitartabs.cc/tabs/p/peterpan/mungkin_nanti_tab.html ]
e|------------------------------------------------------------------------------------|
B|-------------------14--12-----------------------------------------------------------|
G|-------9------------------14---------11-13-11---------------------------------------|
D|--9h11--9-11--12/14-----------14-14-14----------14-14-14--12/11--9--11--------------|
A|-----------------------------------------------------------------------12-----------|
E|------------------------------------------------------------------------------------|

e|-12-12-10-9----9---------------------------12-12-12--12/14-14-16--16/17--19-17-16-17|
B|-------------12--10------10-12/14--12-10-12-----------------------------------------|
G|---------------------9h11-----------------------------------------------------------|
D|------------------------------------------------------------------------------------|
A|------------------------------------------------------------------------------------|
E|------------------------------------------------------------------------------------|




h = hammer
/ = slide up to

Follow it slowly while listening to the music, U'll get used to it
Practice Yu...
Comments