Peter Salett - Heart Of Mine Chords & Tabs

 

Heart Of Mine Chords & Tabs

Peter Salett Chords & Tabs

Version: 1 Type: Chords 0 ratings
1 star 2 stars 3 stars 4 stars 5 stars
comments

Heart Of Mine Chords

   
"HEART OF MINE"

Artist: Peter Salett
Album: Heart of Mine & Keeping the Faith Soundtrack
Transcribed: Reuben Leong   



[Intro]

---2------------2---------------2------------2-----------	
------3------------3-3------------3------------3-3------	
---------2--------------2------------2--------------2----	 
0---------------------------------------------------------
--------------2-----------------------------0-------------
-------------------------------3---------------------------	

---2------------2---------------2------------2--------5--	
------3------------3-3------------3------------3-3------	
--------2---------------2------------2--------------2----	 
0---------------------------------------------------------
--------------2-----------------------------0-------------
-------------------------------3---------------------------	

D	        Em
Do you wanna know
  G	     A  
If everything glitter 
      D		         Em	  
And would turn into the gold
G	    A
I see in your hair
      G	           A
And feel it could be there
D      Em      G	        A/G	
Some-how tonight
[ Tab from: http://www.guitartabs.cc/tabs/p/peter_salett/heart_of_mine_crd.html ]
And do you wanna find
Something worth saving
That change would do me right (yes)
I've been just waiting
And has it tannin 
 Em    A D	--> strum	   Em   G   A   (while singing on D)
With this heart of mine
You're still a mystery
But there's something so easy
How you're sweet to me
I feel completed (like its)
Something I needed
For this heart of mine

[Bridge]

          Bm		    G		
There's always something so tragic
          Bm	 G                
About a hopeless romantic
Bm		
Aaaaaaaaah.......

---2------------2---------------2------------2-----------	
------3------------3-3------------3------------3-3------	
---------2--------------2------------2--------------2----	 
0---------------------------------------------------------
--------------2-----------------------------0-------------
-------------------------------3---------------------------	

---2------------2---------------2------------5----------	
------3------------3-3------------3------------2-2------	
--------2---------------2------------2--------------2----	 
0---------------------------------------------------------
--------------2-----------------------------0-------------
-------------------------------3---------------------------	

   D		   Em	
So though we cannot know
  G	      A
If everything glitter
      D		         Em
And would turn into the gold
     G		A
I'm through with waiting
      G	   A
And has it tannin
 G             A 
I want you taking
        Em   A  D		--> strum	   Em   G   A   (while singing on D)
This heart of mine
 Em   A D		Em   G   A   D
Heart of mine.....

Comments