Peter Paul And Mary - Puff The Magic Dragon Chords & Tabs

 

Puff The Magic Dragon Chords & Tabs

Peter Paul And Mary Chords & Tabs

Version: 4 Type: Tab

Puff The Magic Dragon Tab

   
This is the intro of puff...

tuning standard.

[ Tab from: http://www.guitartabs.cc/tabs/p/peter_paul_and_mary/puff_the_magic_dragon_tab_ver_4.html ]
       A             C#m           D                  A
E|--5-----5-----|--4-----4-----|--------------|--5-----5-----|
B|----5-----5---|----5-----5---|--7-----7-----|----5-----5---|
G|------6-------|------6-------|----7-----7---|------6-------|
D|--------------|--------------|------7-------|--------------|
A|--------------|--4-----------|--5-----------|--7-----------|
E|--5-----------|--------------|--------------|--------------|


       D            A     F#m       B7           E
E|--------------|--5-----2-----|--2-----2-----|--0-----------|
B|--7-----7-----|----5-----2---|----0-----0---|--0-----------|
G|----7-----7---|------6-----2-|------2-------|--1-----------|
D|------7-------|--------------|--------------|--2-----------|
A|--5-----------|--7-----4-----|--2-----------|--2-----------|
E|--------------|--------------|--------------|--0-----------|