Peter Paul And Mary - Puff The Magic Dragon Chords & Tabs

 

Puff The Magic Dragon Chords & Tabs

Peter Paul And Mary Chords & Tabs

Version: 3 Type: Tab

Puff The Magic Dragon Tab

intro:
E|------------------------|
B|------------------------|
G|-2-2-2-2-1-----2-2------|
D|-----------2-4-----2----|
A|------------------------|
E|------------------------|

E|-------------------|-------------------|
B|-------------------|-------------------|
G|---------------2---|-2-2-2---1-2-4-----|
D|-2-0-0-2-0---2-----|-------4-----------|
A|-----------4-------|-------------------|
E|-------------------|-------------------|
[ Tab from: http://www.guitartabs.cc/tabs/p/peter_paul_and_mary/puff_the_magic_dragon_tab_ver_3.html ]
E|------------------------|
B|------------------------|
G|-2-2-2-2-1--------2-2---|
D|-----------2-4-4------2-|
A|------------------------|
E|------------------------|

E|-------------------|-------------------|
B|-------------------|-------------------|
G|---------------2---|-2-2-2---2-1-4-2---|
D|-2-0-0-2-0---2-----|-------4-----------|
A|-----------4-------|-------------------|
E|-------------------|-------------------|

and it just repeats over and over until the end of the song